  0
SECTION
  2
HEADER
  9
$ACADVER
  1
AC1015
  9
$ACADMAINTVER
 70
     6
  9
$DWGCODEPAGE
  3
ANSI_1252
  9
$INSBASE
 10
0.0
 20
0.0
 30
0.0
  9
$EXTMIN
 10
0.0
 20
0.0
 30
0.0
  9
$EXTMAX
 10
11.0
 20
8.5
 30
0.0
  9
$LIMMIN
 10
0.0
 20
0.0
  9
$LIMMAX
 10
11.0
 20
8.5
  9
$ORTHOMODE
 70
     0
  9
$REGENMODE
 70
     1
  9
$FILLMODE
 70
     1
  9
$QTEXTMODE
 70
     0
  9
$MIRRTEXT
 70
     1
  9
$LTSCALE
 40
1.0
  9
$ATTMODE
 70
     1
  9
$TEXTSIZE
 40
0.1666666667
  9
$TRACEWID
 40
0.05
  9
$TEXTSTYLE
  7
Standard
  9
$CLAYER
  8
0
  9
$CELTYPE
  6
ByLayer
  9
$CECOLOR
 62
   256
  9
$CELTSCALE
 40
1.0
  9
$DISPSILH
 70
     0
  9
$DIMSCALE
 40
1.0
  9
$DIMASZ
 40
0.09
  9
$DIMEXO
 40
0.05
  9
$DIMDLI
 40
0.38
  9
$DIMRND
 40
0.0
  9
$DIMDLE
 40
0.0
  9
$DIMEXE
 40
0.0625
  9
$DIMTP
 40
0.0
  9
$DIMTM
 40
0.0
  9
$DIMTXT
 40
0.1666666667
  9
$DIMCEN
 40
0.09
  9
$DIMTSZ
 40
0.0
  9
$DIMTOL
 70
     0
  9
$DIMLIM
 70
     0
  9
$DIMTIH
 70
     1
  9
$DIMTOH
 70
     1
  9
$DIMSE1
 70
     0
  9
$DIMSE2
 70
     0
  9
$DIMTAD
 70
     0
  9
$DIMZIN
 70
     0
  9
$DIMBLK
  1

  9
$DIMASO
 70
     1
  9
$DIMSHO
 70
     1
  9
$DIMPOST
  1

  9
$DIMAPOST
  1

  9
$DIMALT
 70
     0
  9
$DIMALTD
 70
     2
  9
$DIMALTF
 40
25.4
  9
$DIMLFAC
 40
1.0
  9
$DIMTOFL
 70
     0
  9
$DIMTVP
 40
0.0
  9
$DIMTIX
 70
     0
  9
$DIMSOXD
 70
     0
  9
$DIMSAH
 70
     0
  9
$DIMBLK1
  1

  9
$DIMBLK2
  1

  9
$DIMSTYLE
  2
Standard
  9
$DIMCLRD
 70
     0
  9
$DIMCLRE
 70
     0
  9
$DIMCLRT
 70
     0
  9
$DIMTFAC
 40
1.0
  9
$DIMGAP
 40
0.06
  9
$DIMJUST
 70
     0
  9
$DIMSD1
 70
     0
  9
$DIMSD2
 70
     0
  9
$DIMTOLJ
 70
     1
  9
$DIMTZIN
 70
     0
  9
$DIMALTZ
 70
     0
  9
$DIMALTTZ
 70
     0
  9
$DIMUPT
 70
     0
  9
$DIMDEC
 70
     2
  9
$DIMTDEC
 70
     2
  9
$DIMALTU
 70
     2
  9
$DIMALTTD
 70
     2
  9
$DIMTXSTY
  7
Standard
  9
$DIMAUNIT
 70
     0
  9
$DIMADEC
 70
     0
  9
$DIMALTRND
 40
0.0
  9
$DIMAZIN
 70
     0
  9
$DIMDSEP
 70
    46
  9
$DIMATFIT
 70
     3
  9
$DIMFRAC
 70
     0
  9
$DIMLDRBLK
  1

  9
$DIMLUNIT
 70
     2
  9
$DIMLWD
 70
    -2
  9
$DIMLWE
 70
    -2
  9
$DIMTMOVE
 70
     0
  9
$LUNITS
 70
     2
  9
$LUPREC
 70
     2
  9
$SKETCHINC
 40
0.1
  9
$FILLETRAD
 40
0.5
  9
$AUNITS
 70
     0
  9
$AUPREC
 70
     0
  9
$MENU
  1
.
  9
$ELEVATION
 40
0.0
  9
$PELEVATION
 40
0.0
  9
$THICKNESS
 40
0.0
  9
$LIMCHECK
 70
     0
  9
$CHAMFERA
 40
0.0
  9
$CHAMFERB
 40
0.0
  9
$CHAMFERC
 40
0.0
  9
$CHAMFERD
 40
0.0
  9
$SKPOLY
 70
     0
  9
$TDCREATE
 40
2456891.444587165
  9
$TDUCREATE
 40
2456891.652920498
  9
$TDUPDATE
 40
2456891.444587778
  9
$TDUUPDATE
 40
2456891.652921111
  9
$TDINDWG
 40
0.0000000116
  9
$TDUSRTIMER
 40
0.0000000116
  9
$USRTIMER
 70
     1
  9
$ANGBASE
 50
0.0
  9
$ANGDIR
 70
     0
  9
$PDMODE
 70
     0
  9
$PDSIZE
 40
-1.0
  9
$PLINEWID
 40
0.0
  9
$SPLFRAME
 70
     0
  9
$SPLINETYPE
 70
     6
  9
$SPLINESEGS
 70
     8
  9
$HANDSEED
  5
437
  9
$SURFTAB1
 70
     6
  9
$SURFTAB2
 70
     6
  9
$SURFTYPE
 70
     6
  9
$SURFU
 70
     6
  9
$SURFV
 70
     6
  9
$UCSBASE
  2

  9
$UCSNAME
  2

  9
$UCSORG
 10
0.0
 20
0.0
 30
0.0
  9
$UCSXDIR
 10
1.0
 20
0.0
 30
0.0
  9
$UCSYDIR
 10
0.0
 20
1.0
 30
0.0
  9
$UCSORTHOREF
  2

  9
$UCSORTHOVIEW
 70
     0
  9
$UCSORGTOP
 10
0.0
 20
0.0
 30
0.0
  9
$UCSORGBOTTOM
 10
0.0
 20
0.0
 30
0.0
  9
$UCSORGLEFT
 10
0.0
 20
0.0
 30
0.0
  9
$UCSORGRIGHT
 10
0.0
 20
0.0
 30
0.0
  9
$UCSORGFRONT
 10
0.0
 20
0.0
 30
0.0
  9
$UCSORGBACK
 10
0.0
 20
0.0
 30
0.0
  9
$PUCSBASE
  2

  9
$PUCSNAME
  2

  9
$PUCSORG
 10
0.0
 20
0.0
 30
0.0
  9
$PUCSXDIR
 10
1.0
 20
0.0
 30
0.0
  9
$PUCSYDIR
 10
0.0
 20
1.0
 30
0.0
  9
$PUCSORTHOREF
  2

  9
$PUCSORTHOVIEW
 70
     0
  9
$PUCSORGTOP
 10
0.0
 20
0.0
 30
0.0
  9
$PUCSORGBOTTOM
 10
0.0
 20
0.0
 30
0.0
  9
$PUCSORGLEFT
 10
0.0
 20
0.0
 30
0.0
  9
$PUCSORGRIGHT
 10
0.0
 20
0.0
 30
0.0
  9
$PUCSORGFRONT
 10
0.0
 20
0.0
 30
0.0
  9
$PUCSORGBACK
 10
0.0
 20
0.0
 30
0.0
  9
$USERI1
 70
     0
  9
$USERI2
 70
     0
  9
$USERI3
 70
     0
  9
$USERI4
 70
     0
  9
$USERI5
 70
     0
  9
$USERR1
 40
0.0
  9
$USERR2
 40
0.0
  9
$USERR3
 40
0.0
  9
$USERR4
 40
0.0
  9
$USERR5
 40
0.0
  9
$WORLDVIEW
 70
     1
  9
$SHADEDGE
 70
     3
  9
$SHADEDIF
 70
    70
  9
$TILEMODE
 70
     1
  9
$MAXACTVP
 70
    64
  9
$PINSBASE
 10
0.0
 20
0.0
 30
0.0
  9
$PLIMCHECK
 70
     0
  9
$PEXTMIN
 10
1.0000000000E+20
 20
1.0000000000E+20
 30
1.0000000000E+20
  9
$PEXTMAX
 10
-1.0000000000E+20
 20
-1.0000000000E+20
 30
-1.0000000000E+20
  9
$PLIMMIN
 10
0.0
 20
0.0
  9
$PLIMMAX
 10
12.0
 20
9.0
  9
$UNITMODE
 70
     0
  9
$VISRETAIN
 70
     1
  9
$PLINEGEN
 70
     0
  9
$PSLTSCALE
 70
     1
  9
$TREEDEPTH
 70
  3020
  9
$CMLSTYLE
  2
Standard
  9
$CMLJUST
 70
     0
  9
$CMLSCALE
 40
1.0
  9
$PROXYGRAPHICS
 70
     1
  9
$MEASUREMENT
 70
     0
  9
$CELWEIGHT
370
    -1
  9
$ENDCAPS
280
     0
  9
$JOINSTYLE
280
     0
  9
$LWDISPLAY
290
     1
  9
$INSUNITS
 70
     1
  9
$HYPERLINKBASE
  1

  9
$STYLESHEET
  1

  9
$XEDIT
290
     1
  9
$CEPSNTYPE
380
     0
  9
$PSTYLEMODE
290
     1
  9
$FINGERPRINTGUID
  2
{5D4F32C0-9222-4373-9143-3EF313040359}
  9
$VERSIONGUID
  2
{FAEB1C32-E019-11D5-929B-00C0DF256EC4}
  9
$EXTNAMES
290
     1
  9
$PSVPSCALE
 40
0.0
  9
$OLESTARTUP
290
     0
  0
ENDSEC
  0
SECTION
  2
CLASSES
  0
CLASS
  1
ACDBDICTIONARYWDFLT
  2
AcDbDictionaryWithDefault
  3
ObjectDBX Classes
 90
        0
280
     0
281
     0
  0
CLASS
  1
VISUALSTYLE
  2
AcDbVisualStyle
  3
ObjectDBX Classes
 90
     4095
280
     0
281
     0
  0
CLASS
  1
MATERIAL
  2
AcDbMaterial
  3
ObjectDBX Classes
 90
     1153
280
     0
281
     0
  0
CLASS
  1
SCALE
  2
AcDbScale
  3
ObjectDBX Classes
 90
     1153
280
     0
281
     0
  0
CLASS
  1
SUN
  2
AcDbSun
  3
SCENEOE
 90
     1153
280
     0
281
     0
  0
CLASS
  1
ACDBPLACEHOLDER
  2
AcDbPlaceHolder
  3
ObjectDBX Classes
 90
        0
280
     0
281
     0
  0
CLASS
  1
LAYOUT
  2
AcDbLayout
  3
ObjectDBX Classes
 90
        0
280
     0
281
     0
  0
ENDSEC
  0
SECTION
  2
TABLES
  0
TABLE
  2
VPORT
  5
8
330
0
100
AcDbSymbolTable
 70
     1
  0
VPORT
  5
29
330
8
100
AcDbSymbolTableRecord
100
AcDbViewportTableRecord
  2
*Active
 70
     0
 10
0.0
 20
0.0
 11
1.0
 21
1.0
 12
5.5
 22
4.25
 13
0.0
 23
0.0
 14
0.5
 24
0.5
 15
0.5
 25
0.5
 16
0.0
 26
0.0
 36
1.0
 17
0.0
 27
0.0
 37
0.0
 40
8.5
 41
1.2941176471
 42
50.0
 43
0.0
 44
0.0
 50
0.0
 51
0.0
 71
     0
 72
  2000
 73
     1
 74
     3
 75
     0
 76
     0
 77
     0
 78
     0
281
     0
 65
     1
110
0.0
120
0.0
130
0.0
111
1.0
121
0.0
131
0.0
112
0.0
122
1.0
132
0.0
 79
     0
146
0.0
  0
ENDTAB
  0
TABLE
  2
LTYPE
  5
5
330
0
100
AcDbSymbolTable
 70
     6
  0
LTYPE
  5
14
330
5
100
AcDbSymbolTableRecord
100
AcDbLinetypeTableRecord
  2
ByBlock
 70
     0
  3

 72
    65
 73
     0
 40
0.0
  0
LTYPE
  5
15
330
5
100
AcDbSymbolTableRecord
100
AcDbLinetypeTableRecord
  2
ByLayer
 70
     0
  3

 72
    65
 73
     0
 40
0.0
  0
LTYPE
  5
16
330
5
100
AcDbSymbolTableRecord
100
AcDbLinetypeTableRecord
  2
Continuous
 70
     0
  3
Solid line
 72
    65
 73
     0
 40
0.0
  0
LTYPE
  5
6A
330
5
100
AcDbSymbolTableRecord
100
AcDbLinetypeTableRecord
  2
HIDDEN
 70
     0
  3
Hidden __ __ __ __ __ __ __ __ __ __ __ __ __ __
 72
    65
 73
     2
 40
0.075
 49
0.05
 74
     0
 49
-0.025
 74
     0
  0
LTYPE
  5
6B
330
5
100
AcDbSymbolTableRecord
100
AcDbLinetypeTableRecord
  2
PHANTOM
 70
     0
  3
Phantom ______  __  __  ______  __  __  ______
 72
    65
 73
     6
 40
0.5
 49
0.25
 74
     0
 49
-0.05
 74
     0
 49
0.05
 74
     0
 49
-0.05
 74
     0
 49
0.05
 74
     0
 49
-0.05
 74
     0
  0
LTYPE
  5
6C
330
5
100
AcDbSymbolTableRecord
100
AcDbLinetypeTableRecord
  2
CENTER
 70
     0
  3
Center ____ _ ____ _ ____ _ ____ _ ____ _ ____
 72
    65
 73
     4
 40
0.4
 49
0.25
 74
     0
 49
-0.05
 74
     0
 49
0.05
 74
     0
 49
-0.05
 74
     0
  0
LTYPE
  5
6D
330
5
100
AcDbSymbolTableRecord
100
AcDbLinetypeTableRecord
  2
CENTERX2
 70
     0
  3
Center (2x) ________  __  ________  __  _____
 72
    65
 73
     4
 40
0.8
 49
0.5
 74
     0
 49
-0.1
 74
     0
 49
0.1
 74
     0
 49
-0.1
 74
     0
  0
LTYPE
  5
6E
330
5
100
AcDbSymbolTableRecord
100
AcDbLinetypeTableRecord
  2
DOT2
 70
     0
  3
Dot (.5x) ........................................
 72
    65
 73
     2
 40
0.025
 49
0.0
 74
     0
 49
-0.025
 74
     0
  0
ENDTAB
  0
TABLE
  2
LAYER
  5
2
330
0
100
AcDbSymbolTable
 70
     2
  0
LAYER
  5
10
330
2
100
AcDbSymbolTableRecord
100
AcDbLayerTableRecord
  2
0
 70
     0
 62
     7
  6
Continuous
370
    -3
390
F
  0
LAYER
  5
6F
330
2
100
AcDbSymbolTableRecord
100
AcDbLayerTableRecord
  2
FORMAT
 70
     0
 62
     7
  6
Continuous
370
    -3
390
F
  0
ENDTAB
  0
TABLE
  2
STYLE
  5
3
330
0
100
AcDbSymbolTable
 70
     2
  0
STYLE
  5
11
330
3
100
AcDbSymbolTableRecord
100
AcDbTextStyleTableRecord
  2
Standard
 70
     0
 40
0.0
 41
1.0
 50
0.0
 71
     0
 42
0.1666666667
  3
txt
  4

  0
STYLE
  5
435
330
3
100
AcDbSymbolTableRecord
100
AcDbTextStyleTableRecord
  2
SLDTEXTSTYLE0
 70
     0
 40
0.0
 41
0.605
 50
0.0
 71
     0
 42
0.1666666667
  3
TXT
  4

  0
ENDTAB
  0
TABLE
  2
VIEW
  5
6
330
0
100
AcDbSymbolTable
 70
     0
  0
ENDTAB
  0
TABLE
  2
UCS
  5
7
330
0
100
AcDbSymbolTable
 70
     0
  0
ENDTAB
  0
TABLE
  2
APPID
  5
9
330
0
100
AcDbSymbolTable
 70
     1
  0
APPID
  5
12
330
9
100
AcDbSymbolTableRecord
100
AcDbRegAppTableRecord
  2
ACAD
 70
     0
  0
ENDTAB
  0
TABLE
  2
DIMSTYLE
  5
A
330
0
100
AcDbSymbolTable
 70
     1
100
AcDbDimStyleTable
  0
DIMSTYLE
105
27
330
A
100
AcDbSymbolTableRecord
100
AcDbDimStyleTableRecord
  2
Standard
 70
     0
178
     0
340
11
  0
ENDTAB
  0
TABLE
  2
BLOCK_RECORD
  5
1
330
0
100
AcDbSymbolTable
 70
     1
  0
BLOCK_RECORD
  5
1F
330
1
100
AcDbSymbolTableRecord
100
AcDbBlockTableRecord
  2
*Model_Space
340
22
  0
BLOCK_RECORD
  5
1B
330
1
100
AcDbSymbolTableRecord
100
AcDbBlockTableRecord
  2
*Paper_Space
340
1E
  0
BLOCK_RECORD
  5
23
330
1
100
AcDbSymbolTableRecord
100
AcDbBlockTableRecord
  2
*Paper_Space0
340
26
  0
ENDTAB
  0
ENDSEC
  0
SECTION
  2
BLOCKS
  0
BLOCK
  5
20
330
1F
100
AcDbEntity
  8
0
100
AcDbBlockBegin
  2
*Model_Space
 70
     0
 10
0.0
 20
0.0
 30
0.0
  3
*Model_Space
  1
*Model_Space
  0
ENDBLK
  5
21
330
1F
100
AcDbEntity
  8
0
100
AcDbBlockEnd
  0
BLOCK
  5
1C
330
1B
100
AcDbEntity
 67
     1
  8
0
100
AcDbBlockBegin
  2
*Paper_Space
 70
     0
 10
0.0
 20
0.0
 30
0.0
  3
*Paper_Space
  1
*Paper_Space
  0
ENDBLK
  5
1D
330
1B
100
AcDbEntity
 67
     1
  8
0
100
AcDbBlockEnd
  0
BLOCK
  5
24
330
23
100
AcDbEntity
  8
0
100
AcDbBlockBegin
  2
*Paper_Space0
 70
     0
 10
0.0
 20
0.0
 30
0.0
  3
*Paper_Space0
  1
*Paper_Space0
  0
ENDBLK
  5
25
330
23
100
AcDbEntity
  8
0
100
AcDbBlockEnd
  0
ENDSEC
  0
SECTION
  2
ENTITIES
  0
LINE
  5
70
330
1F
100
AcDbEntity
  8
0
  6
Continuous
 62
     7
370
    30
100
AcDbLine
 10
2.8501921911
 20
5.2166885084
 30
0.0
 11
2.8501921911
 21
5.2085675222
 31
0.0
  0
LINE
  5
71
330
1F
100
AcDbEntity
  8
0
  6
Continuous
 62
     7
370
    30
100
AcDbLine
 10
2.8501921911
 20
5.1814650819
 30
0.0
 11
2.8501921911
 21
5.1733440957
 31
0.0
  0
LINE
  5
72
330
1F
100
AcDbEntity
  8
0
  6
Continuous
 62
     7
370
    30
100
AcDbLine
 10
2.8501921911
 20
5.1462416555
 30
0.0
 11
2.8501921911
 21
5.1381207426
 31
0.0
  0
LINE
  5
73
330
1F
100
AcDbEntity
  8
0
  6
Continuous
 62
     7
370
    30
100
AcDbLine
 10
2.8501921911
 20
5.1110182291
 30
0.0
 11
2.8501921911
 21
5.1028973162
 31
0.0
  0
LINE
  5
74
330
1F
100
AcDbEntity
  8
0
  6
Continuous
 62
     7
370
    30
100
AcDbLine
 10
2.8501921911
 20
5.0757948026
 30
0.0
 11
2.8501921911
 21
5.0676738898
 31
0.0
  0
LINE
  5
75
330
1F
100
AcDbEntity
  8
0
  6
Continuous
 62
     7
370
    30
100
AcDbLine
 10
3.0341921989
 20
5.0561447763
 30
0.0
 11
3.0341921989
 21
5.0563869935
 31
0.0
  0
LINE
  5
76
330
1F
100
AcDbEntity
  8
0
  6
Continuous
 62
     7
370
    30
100
AcDbLine
 10
3.0341921989
 20
5.0835251467
 30
0.0
 11
3.0341921989
 21
5.0916104199
 31
0.0
  0
LINE
  5
77
330
1F
100
AcDbEntity
  8
0
  6
Continuous
 62
     7
370
    30
100
AcDbLine
 10
3.0341921989
 20
5.1187485731
 30
0.0
 11
3.0341921989
 21
5.1268338464
 31
0.0
  0
LINE
  5
78
330
1F
100
AcDbEntity
  8
0
  6
Continuous
 62
     7
370
    30
100
AcDbLine
 10
3.0341921989
 20
5.1539719995
 30
0.0
 11
3.0341921989
 21
5.1620572728
 31
0.0
  0
LINE
  5
79
330
1F
100
AcDbEntity
  8
0
  6
Continuous
 62
     7
370
    30
100
AcDbLine
 10
3.0341921989
 20
5.189195426
 30
0.0
 11
3.0341921989
 21
5.1972806992
 31
0.0
  0
LINE
  5
7A
330
1F
100
AcDbEntity
  8
0
  6
Continuous
 62
     7
370
    30
100
AcDbLine
 10
3.0341921989
 20
5.2244188524
 30
0.0
 11
3.0341921989
 21
5.2325041257
 31
0.0
  0
LINE
  5
7B
330
1F
100
AcDbEntity
  8
0
  6
Continuous
 62
     7
370
    30
100
AcDbLine
 10
4.6001921883
 20
5.2166885084
 30
0.0
 11
4.6001921883
 21
5.2085675222
 31
0.0
  0
LINE
  5
7C
330
1F
100
AcDbEntity
  8
0
  6
Continuous
 62
     7
370
    30
100
AcDbLine
 10
4.6001921883
 20
5.1814650819
 30
0.0
 11
4.6001921883
 21
5.1733440957
 31
0.0
  0
LINE
  5
7D
330
1F
100
AcDbEntity
  8
0
  6
Continuous
 62
     7
370
    30
100
AcDbLine
 10
4.6001921883
 20
5.1462416555
 30
0.0
 11
4.6001921883
 21
5.1381207426
 31
0.0
  0
LINE
  5
7E
330
1F
100
AcDbEntity
  8
0
  6
Continuous
 62
     7
370
    30
100
AcDbLine
 10
4.6001921883
 20
5.1110182291
 30
0.0
 11
4.6001921883
 21
5.1028973162
 31
0.0
  0
LINE
  5
7F
330
1F
100
AcDbEntity
  8
0
  6
Continuous
 62
     7
370
    30
100
AcDbLine
 10
4.6001921883
 20
5.0757948026
 30
0.0
 11
4.6001921883
 21
5.0676738898
 31
0.0
  0
LINE
  5
80
330
1F
100
AcDbEntity
  8
0
  6
Continuous
 62
     7
370
    30
100
AcDbLine
 10
4.7841921961
 20
5.0561447763
 30
0.0
 11
4.7841921961
 21
5.0563869935
 31
0.0
  0
LINE
  5
81
330
1F
100
AcDbEntity
  8
0
  6
Continuous
 62
     7
370
    30
100
AcDbLine
 10
4.7841921961
 20
5.0835251467
 30
0.0
 11
4.7841921961
 21
5.0916104199
 31
0.0
  0
LINE
  5
82
330
1F
100
AcDbEntity
  8
0
  6
Continuous
 62
     7
370
    30
100
AcDbLine
 10
4.7841921961
 20
5.1187485731
 30
0.0
 11
4.7841921961
 21
5.1268338464
 31
0.0
  0
LINE
  5
83
330
1F
100
AcDbEntity
  8
0
  6
Continuous
 62
     7
370
    30
100
AcDbLine
 10
4.7841921961
 20
5.1539719995
 30
0.0
 11
4.7841921961
 21
5.1620572728
 31
0.0
  0
LINE
  5
84
330
1F
100
AcDbEntity
  8
0
  6
Continuous
 62
     7
370
    30
100
AcDbLine
 10
4.7841921961
 20
5.189195426
 30
0.0
 11
4.7841921961
 21
5.1972806992
 31
0.0
  0
LINE
  5
85
330
1F
100
AcDbEntity
  8
0
  6
Continuous
 62
     7
370
    30
100
AcDbLine
 10
4.7841921961
 20
5.2244188524
 30
0.0
 11
4.7841921961
 21
5.2325041257
 31
0.0
  0
LINE
  5
86
330
1F
100
AcDbEntity
  8
0
  6
Continuous
 62
     7
370
    30
100
AcDbLine
 10
8.1001921827
 20
5.2166885084
 30
0.0
 11
8.1001921827
 21
5.2085675222
 31
0.0
  0
LINE
  5
87
330
1F
100
AcDbEntity
  8
0
  6
Continuous
 62
     7
370
    30
100
AcDbLine
 10
8.1001921827
 20
5.1814650819
 30
0.0
 11
8.1001921827
 21
5.1733440957
 31
0.0
  0
LINE
  5
88
330
1F
100
AcDbEntity
  8
0
  6
Continuous
 62
     7
370
    30
100
AcDbLine
 10
8.1001921827
 20
5.1462416555
 30
0.0
 11
8.1001921827
 21
5.1381207426
 31
0.0
  0
LINE
  5
89
330
1F
100
AcDbEntity
  8
0
  6
Continuous
 62
     7
370
    30
100
AcDbLine
 10
8.1001921827
 20
5.1110182291
 30
0.0
 11
8.1001921827
 21
5.1028973162
 31
0.0
  0
LINE
  5
8A
330
1F
100
AcDbEntity
  8
0
  6
Continuous
 62
     7
370
    30
100
AcDbLine
 10
8.1001921827
 20
5.0757948026
 30
0.0
 11
8.1001921827
 21
5.0676738898
 31
0.0
  0
LINE
  5
8B
330
1F
100
AcDbEntity
  8
0
  6
Continuous
 62
     7
370
    30
100
AcDbLine
 10
8.2841921904
 20
5.0561447763
 30
0.0
 11
8.2841921904
 21
5.0563869935
 31
0.0
  0
LINE
  5
8C
330
1F
100
AcDbEntity
  8
0
  6
Continuous
 62
     7
370
    30
100
AcDbLine
 10
8.2841921904
 20
5.0835251467
 30
0.0
 11
8.2841921904
 21
5.0916104199
 31
0.0
  0
LINE
  5
8D
330
1F
100
AcDbEntity
  8
0
  6
Continuous
 62
     7
370
    30
100
AcDbLine
 10
8.2841921904
 20
5.1187485731
 30
0.0
 11
8.2841921904
 21
5.1268338464
 31
0.0
  0
LINE
  5
8E
330
1F
100
AcDbEntity
  8
0
  6
Continuous
 62
     7
370
    30
100
AcDbLine
 10
8.2841921904
 20
5.1539719995
 30
0.0
 11
8.2841921904
 21
5.1620572728
 31
0.0
  0
LINE
  5
8F
330
1F
100
AcDbEntity
  8
0
  6
Continuous
 62
     7
370
    30
100
AcDbLine
 10
8.2841921904
 20
5.189195426
 30
0.0
 11
8.2841921904
 21
5.1972806992
 31
0.0
  0
LINE
  5
90
330
1F
100
AcDbEntity
  8
0
  6
Continuous
 62
     7
370
    30
100
AcDbLine
 10
8.2841921904
 20
5.2244188524
 30
0.0
 11
8.2841921904
 21
5.2325041257
 31
0.0
  0
LINE
  5
91
330
1F
100
AcDbEntity
  8
0
  6
Continuous
 62
     7
370
    30
100
AcDbLine
 10
6.3501921855
 20
5.2166885084
 30
0.0
 11
6.3501921855
 21
5.2085675222
 31
0.0
  0
LINE
  5
92
330
1F
100
AcDbEntity
  8
0
  6
Continuous
 62
     7
370
    30
100
AcDbLine
 10
6.3501921855
 20
5.1814650819
 30
0.0
 11
6.3501921855
 21
5.1733440957
 31
0.0
  0
LINE
  5
93
330
1F
100
AcDbEntity
  8
0
  6
Continuous
 62
     7
370
    30
100
AcDbLine
 10
6.3501921855
 20
5.1462416555
 30
0.0
 11
6.3501921855
 21
5.1381207426
 31
0.0
  0
LINE
  5
94
330
1F
100
AcDbEntity
  8
0
  6
Continuous
 62
     7
370
    30
100
AcDbLine
 10
6.3501921855
 20
5.1110182291
 30
0.0
 11
6.3501921855
 21
5.1028973162
 31
0.0
  0
LINE
  5
95
330
1F
100
AcDbEntity
  8
0
  6
Continuous
 62
     7
370
    30
100
AcDbLine
 10
6.3501921855
 20
5.0757948026
 30
0.0
 11
6.3501921855
 21
5.0676738898
 31
0.0
  0
LINE
  5
96
330
1F
100
AcDbEntity
  8
0
  6
Continuous
 62
     7
370
    30
100
AcDbLine
 10
6.5341921933
 20
5.0561447763
 30
0.0
 11
6.5341921933
 21
5.0563869935
 31
0.0
  0
LINE
  5
97
330
1F
100
AcDbEntity
  8
0
  6
Continuous
 62
     7
370
    30
100
AcDbLine
 10
6.5341921933
 20
5.0835251467
 30
0.0
 11
6.5341921933
 21
5.0916104199
 31
0.0
  0
LINE
  5
98
330
1F
100
AcDbEntity
  8
0
  6
Continuous
 62
     7
370
    30
100
AcDbLine
 10
6.5341921933
 20
5.1187485731
 30
0.0
 11
6.5341921933
 21
5.1268338464
 31
0.0
  0
LINE
  5
99
330
1F
100
AcDbEntity
  8
0
  6
Continuous
 62
     7
370
    30
100
AcDbLine
 10
6.5341921933
 20
5.1539719995
 30
0.0
 11
6.5341921933
 21
5.1620572728
 31
0.0
  0
LINE
  5
9A
330
1F
100
AcDbEntity
  8
0
  6
Continuous
 62
     7
370
    30
100
AcDbLine
 10
6.5341921933
 20
5.189195426
 30
0.0
 11
6.5341921933
 21
5.1972806992
 31
0.0
  0
LINE
  5
9B
330
1F
100
AcDbEntity
  8
0
  6
Continuous
 62
     7
370
    30
100
AcDbLine
 10
6.5341921933
 20
5.2244188524
 30
0.0
 11
6.5341921933
 21
5.2325041257
 31
0.0
  0
ARC
  5
9C
330
1F
100
AcDbEntity
  8
0
  6
Continuous
 62
     7
370
    30
100
AcDbCircle
 10
8.0341921908
 20
5.0179653592
 30
0.0
 40
0.0320000000000008
100
AcDbArc
 50
119.8355602232
 51
180.0
  0
LINE
  5
9D
330
1F
100
AcDbEntity
  8
0
  6
Continuous
 62
     7
370
    30
100
AcDbLine
 10
8.0021922615
 20
4.9001447984
 30
0.0
 11
8.0021922615
 21
5.0179653907
 31
0.0
  0
ARC
  5
9E
330
1F
100
AcDbEntity
  8
0
  6
Continuous
 62
     7
370
    30
100
AcDbCircle
 10
7.7341921908
 20
4.9001447719
 30
0.0
 40
0.268
100
AcDbArc
 50
296.7854683781
 51
0.0
  0
ARC
  5
9F
330
1F
100
AcDbEntity
  8
0
  6
Continuous
 62
     7
370
    30
100
AcDbCircle
 10
7.875245999
 20
4.620729627
 30
0.0
 40
0.0449999999999995
100
AcDbArc
 50
116.7854683781
 51
188.0229869069
  0
ARC
  5
A0
330
1F
100
AcDbEntity
  8
0
  6
Continuous
 62
     7
370
    30
100
AcDbCircle
 10
8.1341921908
 20
4.3431447719
 30
0.0
 40
0.032
100
AcDbArc
 50
261.1501169016
 51
0.0
  0
LINE
  5
A1
330
1F
100
AcDbEntity
  8
0
  6
Continuous
 62
     7
370
    30
100
AcDbLine
 10
8.1661923002
 20
4.4731447645
 30
0.0
 11
8.1661923002
 21
4.3431447646
 31
0.0
  0
LINE
  5
A2
330
1F
100
AcDbEntity
  8
0
  6
Continuous
 62
     7
370
    30
100
AcDbLine
 10
8.184192199
 20
4.4731447645
 30
0.0
 11
8.184192199
 21
4.3431447646
 31
0.0
  0
ARC
  5
A3
330
1F
100
AcDbEntity
  8
0
  6
Continuous
 62
     7
370
    30
100
AcDbCircle
 10
7.9841921908
 20
5.1051447719
 30
0.0
 40
0.0685000000000004
100
AcDbArc
 50
299.8355602232
 51
110.0
  0
ARC
  5
A4
330
1F
100
AcDbEntity
  8
0
  6
Continuous
 62
     7
370
    30
100
AcDbCircle
 10
8.1841921908
 20
4.6642755864
 30
0.0
 40
0.3569999999999998
100
AcDbArc
 50
188.0229869069
 51
261.1501169016
  0
ARC
  5
A5
330
1F
100
AcDbEntity
  8
0
  6
Continuous
 62
     7
370
    30
100
AcDbCircle
 10
7.7341921908
 20
4.9001447719
 30
0.0
 40
0.25
100
AcDbArc
 50
296.7854683781
 51
0.0
  0
LINE
  5
A6
330
1F
100
AcDbEntity
  8
0
  6
Continuous
 62
     7
370
    30
100
AcDbLine
 10
7.9841922161
 20
4.9001447984
 30
0.0
 11
7.9841922161
 21
5.0179653907
 31
0.0
  0
ARC
  5
A7
330
1F
100
AcDbEntity
  8
0
  6
Continuous
 62
     7
370
    30
100
AcDbCircle
 10
8.0341921908
 20
5.0179653592
 30
0.0
 40
0.0500000000000007
100
AcDbArc
 50
119.8355602232
 51
180.0
  0
LINE
  5
A8
330
1F
100
AcDbEntity
  8
0
  6
Continuous
 62
     7
370
    30
100
AcDbLine
 10
8.1661923002
 20
4.4731447645
 30
0.0
 11
8.184192199
 21
4.4731447645
 31
0.0
  0
LINE
  5
A9
330
1F
100
AcDbEntity
  8
0
  6
Continuous
 62
     7
370
    30
100
AcDbLine
 10
7.9669202156
 20
5.1525992154
 30
0.0
 11
7.9607638067
 21
5.16951372
 31
0.0
  0
ARC
  5
AA
330
1F
100
AcDbEntity
  8
0
  6
Continuous
 62
     7
370
    30
100
AcDbCircle
 10
8.1341921908
 20
4.3431447719
 30
0.0
 40
0.0500000000000007
100
AcDbArc
 50
261.1501169016
 51
0.0
  0
ARC
  5
AB
330
1F
100
AcDbEntity
  8
0
  6
Continuous
 62
     7
370
    30
100
AcDbCircle
 10
8.1841921908
 20
4.6642755864
 30
0.0
 40
0.3750000000000001
100
AcDbArc
 50
188.0229869069
 51
261.1501169016
  0
ARC
  5
AC
330
1F
100
AcDbEntity
  8
0
  6
Continuous
 62
     7
370
    30
100
AcDbCircle
 10
7.875245999
 20
4.620729627
 30
0.0
 40
0.0629999999999997
100
AcDbArc
 50
116.7854683781
 51
188.0229869069
  0
ARC
  5
AD
330
1F
100
AcDbEntity
  8
0
  6
Continuous
 62
     7
370
    30
100
AcDbCircle
 10
7.9841921908
 20
5.1051447719
 30
0.0
 40
0.0505000000000007
100
AcDbArc
 50
299.8355602232
 51
110.0
  0
LINE
  5
AE
330
1F
100
AcDbEntity
  8
0
  6
Continuous
 62
     7
370
    30
100
AcDbLine
 10
4.9174642365
 20
5.1525992154
 30
0.0
 11
4.923620572
 21
5.16951372
 31
0.0
  0
ARC
  5
AF
330
1F
100
AcDbEntity
  8
0
  6
Continuous
 62
     7
370
    30
100
AcDbCircle
 10
4.9001921908
 20
5.1051447719
 30
0.0
 40
0.0505000000000004
100
AcDbArc
 50
70.0
 51
240.1644397768
  0
ARC
  5
B0
330
1F
100
AcDbEntity
  8
0
  6
Continuous
 62
     7
370
    30
100
AcDbCircle
 10
4.8501921908
 20
5.0179653592
 30
0.0
 40
0.05
100
AcDbArc
 50
0.0
 51
60.1644397768
  0
LINE
  5
B1
330
1F
100
AcDbEntity
  8
0
  6
Continuous
 62
     7
370
    30
100
AcDbLine
 10
4.9001921627
 20
4.9001447984
 30
0.0
 11
4.9001921627
 21
5.0179653907
 31
0.0
  0
ARC
  5
B2
330
1F
100
AcDbEntity
  8
0
  6
Continuous
 62
     7
370
    30
100
AcDbCircle
 10
5.1501921908
 20
4.9001447719
 30
0.0
 40
0.2500000000000009
100
AcDbArc
 50
180.0
 51
243.2145316219
  0
ARC
  5
B3
330
1F
100
AcDbEntity
  8
0
  6
Continuous
 62
     7
370
    30
100
AcDbCircle
 10
5.0091383826
 20
4.620729627
 30
0.0
 40
0.0629999999999997
100
AcDbArc
 50
351.9770130931
 51
63.2145316219
  0
ARC
  5
B4
330
1F
100
AcDbEntity
  8
0
  6
Continuous
 62
     7
370
    30
100
AcDbCircle
 10
4.7001921908
 20
4.6642755864
 30
0.0
 40
0.3750000000000001
100
AcDbArc
 50
278.8498830984
 51
351.9770130931
  0
ARC
  5
B5
330
1F
100
AcDbEntity
  8
0
  6
Continuous
 62
     7
370
    30
100
AcDbCircle
 10
4.7501921908
 20
4.3431447719
 30
0.0
 40
0.0499999999999998
100
AcDbArc
 50
180.0
 51
278.8498830984
  0
LINE
  5
B6
330
1F
100
AcDbEntity
  8
0
  6
Continuous
 62
     7
370
    30
100
AcDbLine
 10
4.7001921798
 20
4.4731447645
 30
0.0
 11
4.7001921798
 21
4.3431447646
 31
0.0
  0
LINE
  5
B7
330
1F
100
AcDbEntity
  8
0
  6
Continuous
 62
     7
370
    30
100
AcDbLine
 10
4.7181922252
 20
4.4731447645
 30
0.0
 11
4.7001921798
 21
4.4731447645
 31
0.0
  0
LINE
  5
B8
330
1F
100
AcDbEntity
  8
0
  6
Continuous
 62
     7
370
    30
100
AcDbLine
 10
4.7181922252
 20
4.4731447645
 30
0.0
 11
4.7181922252
 21
4.3431447646
 31
0.0
  0
ARC
  5
B9
330
1F
100
AcDbEntity
  8
0
  6
Continuous
 62
     7
370
    30
100
AcDbCircle
 10
4.7501921908
 20
4.3431447719
 30
0.0
 40
0.0319999999999996
100
AcDbArc
 50
180.0
 51
278.8498830984
  0
ARC
  5
BA
330
1F
100
AcDbEntity
  8
0
  6
Continuous
 62
     7
370
    30
100
AcDbCircle
 10
4.7001921908
 20
4.6642755864
 30
0.0
 40
0.3569999999999999
100
AcDbArc
 50
278.8498830984
 51
351.9770130931
  0
ARC
  5
BB
330
1F
100
AcDbEntity
  8
0
  6
Continuous
 62
     7
370
    30
100
AcDbCircle
 10
5.0091383826
 20
4.620729627
 30
0.0
 40
0.0449999999999995
100
AcDbArc
 50
351.9770130931
 51
63.2145316219
  0
ARC
  5
BC
330
1F
100
AcDbEntity
  8
0
  6
Continuous
 62
     7
370
    30
100
AcDbCircle
 10
5.1501921908
 20
4.9001447719
 30
0.0
 40
0.2680000000000007
100
AcDbArc
 50
180.0
 51
243.2145316219
  0
ARC
  5
BD
330
1F
100
AcDbEntity
  8
0
  6
Continuous
 62
     7
370
    30
100
AcDbCircle
 10
4.9001921908
 20
5.1051447719
 30
0.0
 40
0.0685000000000004
100
AcDbArc
 50
70.0
 51
240.1644397768
  0
LINE
  5
BE
330
1F
100
AcDbEntity
  8
0
  6
Continuous
 62
     7
370
    30
100
AcDbLine
 10
4.8821921906
 20
4.9001447984
 30
0.0
 11
4.8821921906
 21
5.0179653907
 31
0.0
  0
ARC
  5
BF
330
1F
100
AcDbEntity
  8
0
  6
Continuous
 62
     7
370
    30
100
AcDbCircle
 10
4.8501921908
 20
5.0179653592
 30
0.0
 40
0.032
100
AcDbArc
 50
0.0
 51
60.1644397768
  0
LINE
  5
C0
330
1F
100
AcDbEntity
  8
0
  6
Continuous
 62
     7
370
    30
100
AcDbLine
 10
6.6674642337
 20
5.1525992154
 30
0.0
 11
6.6736205692
 21
5.16951372
 31
0.0
  0
ARC
  5
C1
330
1F
100
AcDbEntity
  8
0
  6
Continuous
 62
     7
370
    30
100
AcDbCircle
 10
6.6501921908
 20
5.1051447719
 30
0.0
 40
0.0505000000000004
100
AcDbArc
 50
70.0
 51
240.1644397768
  0
ARC
  5
C2
330
1F
100
AcDbEntity
  8
0
  6
Continuous
 62
     7
370
    30
100
AcDbCircle
 10
6.6001921908
 20
5.0179653592
 30
0.0
 40
0.0499999999999998
100
AcDbArc
 50
0.0
 51
60.1644397768
  0
LINE
  5
C3
330
1F
100
AcDbEntity
  8
0
  6
Continuous
 62
     7
370
    30
100
AcDbLine
 10
6.6501921599
 20
4.9001447984
 30
0.0
 11
6.6501921599
 21
5.0179653907
 31
0.0
  0
ARC
  5
C4
330
1F
100
AcDbEntity
  8
0
  6
Continuous
 62
     7
370
    30
100
AcDbCircle
 10
6.9001921908
 20
4.9001447719
 30
0.0
 40
0.2500000000000009
100
AcDbArc
 50
180.0
 51
243.2145316219
  0
ARC
  5
C5
330
1F
100
AcDbEntity
  8
0
  6
Continuous
 62
     7
370
    30
100
AcDbCircle
 10
6.7591383826
 20
4.620729627
 30
0.0
 40
0.0629999999999999
100
AcDbArc
 50
351.9770130931
 51
63.2145316219
  0
ARC
  5
C6
330
1F
100
AcDbEntity
  8
0
  6
Continuous
 62
     7
370
    30
100
AcDbCircle
 10
6.4501921908
 20
4.6642755864
 30
0.0
 40
0.3749999999999996
100
AcDbArc
 50
278.8498830984
 51
351.9770130931
  0
ARC
  5
C7
330
1F
100
AcDbEntity
  8
0
  6
Continuous
 62
     7
370
    30
100
AcDbCircle
 10
6.5001921908
 20
4.3431447719
 30
0.0
 40
0.0500000000000004
100
AcDbArc
 50
180.0
 51
278.8498830984
  0
LINE
  5
C8
330
1F
100
AcDbEntity
  8
0
  6
Continuous
 62
     7
370
    30
100
AcDbLine
 10
6.450192177
 20
4.4731447645
 30
0.0
 11
6.450192177
 21
4.3431447646
 31
0.0
  0
LINE
  5
C9
330
1F
100
AcDbEntity
  8
0
  6
Continuous
 62
     7
370
    30
100
AcDbLine
 10
6.4681922224
 20
4.4731447645
 30
0.0
 11
6.450192177
 21
4.4731447645
 31
0.0
  0
LINE
  5
CA
330
1F
100
AcDbEntity
  8
0
  6
Continuous
 62
     7
370
    30
100
AcDbLine
 10
6.4681922224
 20
4.4731447645
 30
0.0
 11
6.4681922224
 21
4.3431447646
 31
0.0
  0
ARC
  5
CB
330
1F
100
AcDbEntity
  8
0
  6
Continuous
 62
     7
370
    30
100
AcDbCircle
 10
6.7591383826
 20
4.620729627
 30
0.0
 40
0.0449999999999995
100
AcDbArc
 50
351.9770130931
 51
63.2145316219
  0
LINE
  5
CC
330
1F
100
AcDbEntity
  8
0
  6
Continuous
 62
     7
370
    30
100
AcDbLine
 10
6.6321921878
 20
4.9001447984
 30
0.0
 11
6.6321921878
 21
5.0179653907
 31
0.0
  0
ARC
  5
CD
330
1F
100
AcDbEntity
  8
0
  6
Continuous
 62
     7
370
    30
100
AcDbCircle
 10
6.6001921908
 20
5.0179653592
 30
0.0
 40
0.032
100
AcDbArc
 50
0.0
 51
60.1644397768
  0
ARC
  5
CE
330
1F
100
AcDbEntity
  8
0
  6
Continuous
 62
     7
370
    30
100
AcDbCircle
 10
6.6501921908
 20
5.1051447719
 30
0.0
 40
0.0684999999999995
100
AcDbArc
 50
70.0
 51
240.1644397768
  0
ARC
  5
CF
330
1F
100
AcDbEntity
  8
0
  6
Continuous
 62
     7
370
    30
100
AcDbCircle
 10
6.9001921908
 20
4.9001447719
 30
0.0
 40
0.2680000000000007
100
AcDbArc
 50
180.0
 51
243.2145316219
  0
ARC
  5
D0
330
1F
100
AcDbEntity
  8
0
  6
Continuous
 62
     7
370
    30
100
AcDbCircle
 10
6.5001921908
 20
4.3431447719
 30
0.0
 40
0.0320000000000005
100
AcDbArc
 50
180.0
 51
278.8498830984
  0
ARC
  5
D1
330
1F
100
AcDbEntity
  8
0
  6
Continuous
 62
     7
370
    30
100
AcDbCircle
 10
6.4501921908
 20
4.6642755864
 30
0.0
 40
0.3569999999999998
100
AcDbArc
 50
278.8498830984
 51
351.9770130931
  0
LINE
  5
D2
330
1F
100
AcDbEntity
  8
0
  6
Continuous
 62
     7
370
    30
100
AcDbLine
 10
2.7521921232
 20
4.9001447984
 30
0.0
 11
2.7521921232
 21
5.0179653907
 31
0.0
  0
ARC
  5
D3
330
1F
100
AcDbEntity
  8
0
  6
Continuous
 62
     7
370
    30
100
AcDbCircle
 10
2.7841921908
 20
5.0179653592
 30
0.0
 40
0.032000000000001
100
AcDbArc
 50
119.8355602232
 51
180.0
  0
ARC
  5
D4
330
1F
100
AcDbEntity
  8
0
  6
Continuous
 62
     7
370
    30
100
AcDbCircle
 10
2.4841921908
 20
4.9001447719
 30
0.0
 40
0.2679999999999998
100
AcDbArc
 50
296.7854683781
 51
0.0
  0
ARC
  5
D5
330
1F
100
AcDbEntity
  8
0
  6
Continuous
 62
     7
370
    30
100
AcDbCircle
 10
2.9341921908
 20
4.6642755864
 30
0.0
 40
0.3569999999999998
100
AcDbArc
 50
188.0229869069
 51
261.1501169016
  0
LINE
  5
D6
330
1F
100
AcDbEntity
  8
0
  6
Continuous
 62
     7
370
    30
100
AcDbLine
 10
2.7169200774
 20
5.1525992154
 30
0.0
 11
2.7107636685
 21
5.16951372
 31
0.0
  0
ARC
  5
D7
330
1F
100
AcDbEntity
  8
0
  6
Continuous
 62
     7
370
    30
100
AcDbCircle
 10
2.625245999
 20
4.620729627
 30
0.0
 40
0.0630000000000011
100
AcDbArc
 50
116.7854683781
 51
188.0229869069
  0
ARC
  5
D8
330
1F
100
AcDbEntity
  8
0
  6
Continuous
 62
     7
370
    30
100
AcDbCircle
 10
2.4841921908
 20
4.9001447719
 30
0.0
 40
0.2499999999999996
100
AcDbArc
 50
296.7854683781
 51
0.0
  0
LINE
  5
D9
330
1F
100
AcDbEntity
  8
0
  6
Continuous
 62
     7
370
    30
100
AcDbLine
 10
2.7341922245
 20
4.9001447984
 30
0.0
 11
2.7341922245
 21
5.0179653907
 31
0.0
  0
ARC
  5
DA
330
1F
100
AcDbEntity
  8
0
  6
Continuous
 62
     7
370
    30
100
AcDbCircle
 10
2.7341921908
 20
5.1051447719
 30
0.0
 40
0.0505000000000004
100
AcDbArc
 50
299.8355602232
 51
110.0
  0
ARC
  5
DB
330
1F
100
AcDbEntity
  8
0
  6
Continuous
 62
     7
370
    30
100
AcDbCircle
 10
2.8841921908
 20
4.3431447719
 30
0.0
 40
0.0500000000000003
100
AcDbArc
 50
261.1501169016
 51
0.0
  0
ARC
  5
DC
330
1F
100
AcDbEntity
  8
0
  6
Continuous
 62
     7
370
    30
100
AcDbCircle
 10
2.7841921908
 20
5.0179653592
 30
0.0
 40
0.0500000000000002
100
AcDbArc
 50
119.8355602232
 51
180.0
  0
LINE
  5
DD
330
1F
100
AcDbEntity
  8
0
  6
Continuous
 62
     7
370
    30
100
AcDbLine
 10
2.9161923087
 20
4.4731447645
 30
0.0
 11
2.9161923087
 21
4.3431447646
 31
0.0
  0
ARC
  5
DE
330
1F
100
AcDbEntity
  8
0
  6
Continuous
 62
     7
370
    30
100
AcDbCircle
 10
2.9341921908
 20
4.6642755864
 30
0.0
 40
0.3750000000000001
100
AcDbArc
 50
188.0229869069
 51
261.1501169016
  0
ARC
  5
DF
330
1F
100
AcDbEntity
  8
0
  6
Continuous
 62
     7
370
    30
100
AcDbCircle
 10
2.625245999
 20
4.620729627
 30
0.0
 40
0.0450000000000005
100
AcDbArc
 50
116.7854683781
 51
188.0229869069
  0
ARC
  5
E0
330
1F
100
AcDbEntity
  8
0
  6
Continuous
 62
     7
370
    30
100
AcDbCircle
 10
2.7341921908
 20
5.1051447719
 30
0.0
 40
0.0684999999999997
100
AcDbArc
 50
299.8355602232
 51
110.0
  0
LINE
  5
E1
330
1F
100
AcDbEntity
  8
0
  6
Continuous
 62
     7
370
    30
100
AcDbLine
 10
2.9341922074
 20
4.4731447645
 30
0.0
 11
2.9341922074
 21
4.3431447646
 31
0.0
  0
LINE
  5
E2
330
1F
100
AcDbEntity
  8
0
  6
Continuous
 62
     7
370
    30
100
AcDbLine
 10
2.9161923087
 20
4.4731447645
 30
0.0
 11
2.9341922074
 21
4.4731447645
 31
0.0
  0
ARC
  5
E3
330
1F
100
AcDbEntity
  8
0
  6
Continuous
 62
     7
370
    30
100
AcDbCircle
 10
2.8841921908
 20
4.3431447719
 30
0.0
 40
0.0320000000000004
100
AcDbArc
 50
261.1501169016
 51
0.0
  0
LINE
  5
E4
330
1F
100
AcDbEntity
  8
0
  6
Continuous
 62
     7
370
    30
100
AcDbLine
 10
3.167464166
 20
5.1525992154
 30
0.0
 11
3.1736205749
 21
5.16951372
 31
0.0
  0
ARC
  5
E5
330
1F
100
AcDbEntity
  8
0
  6
Continuous
 62
     7
370
    30
100
AcDbCircle
 10
3.1501921908
 20
5.1051447719
 30
0.0
 40
0.0505000000000007
100
AcDbArc
 50
70.0
 51
240.1644397768
  0
ARC
  5
E6
330
1F
100
AcDbEntity
  8
0
  6
Continuous
 62
     7
370
    30
100
AcDbCircle
 10
3.1001921908
 20
5.0179653592
 30
0.0
 40
0.0500000000000003
100
AcDbArc
 50
0.0
 51
60.1644397768
  0
ARC
  5
E7
330
1F
100
AcDbEntity
  8
0
  6
Continuous
 62
     7
370
    30
100
AcDbCircle
 10
3.1501921908
 20
5.1051447719
 30
0.0
 40
0.0685000000000007
100
AcDbArc
 50
70.0
 51
240.1644397768
  0
LINE
  5
E8
330
1F
100
AcDbEntity
  8
0
  6
Continuous
 62
     7
370
    30
100
AcDbLine
 10
3.1501921655
 20
4.9001447984
 30
0.0
 11
3.1501921655
 21
5.0179653907
 31
0.0
  0
ARC
  5
E9
330
1F
100
AcDbEntity
  8
0
  6
Continuous
 62
     7
370
    30
100
AcDbCircle
 10
3.1001921908
 20
5.0179653592
 30
0.0
 40
0.0320000000000002
100
AcDbArc
 50
0.0
 51
60.1644397768
  0
LINE
  5
EA
330
1F
100
AcDbEntity
  8
0
  6
Continuous
 62
     7
370
    30
100
AcDbLine
 10
3.1321921201
 20
4.9001447984
 30
0.0
 11
3.1321921201
 21
5.0179653907
 31
0.0
  0
ARC
  5
EB
330
1F
100
AcDbEntity
  8
0
  6
Continuous
 62
     7
370
    30
100
AcDbCircle
 10
3.4001921908
 20
4.9001447719
 30
0.0
 40
0.25
100
AcDbArc
 50
180.0
 51
243.2145316219
  0
ARC
  5
EC
330
1F
100
AcDbEntity
  8
0
  6
Continuous
 62
     7
370
    30
100
AcDbCircle
 10
3.2591383826
 20
4.620729627
 30
0.0
 40
0.0630000000000005
100
AcDbArc
 50
351.9770130931
 51
63.2145316219
  0
LINE
  5
ED
330
1F
100
AcDbEntity
  8
0
  6
Continuous
 62
     7
370
    30
100
AcDbLine
 10
2.9681920813
 20
4.4731447645
 30
0.0
 11
2.9681920813
 21
4.3431447646
 31
0.0
  0
LINE
  5
EE
330
1F
100
AcDbEntity
  8
0
  6
Continuous
 62
     7
370
    30
100
AcDbLine
 10
2.9681920813
 20
4.4731447645
 30
0.0
 11
2.9501921826
 21
4.4731447645
 31
0.0
  0
ARC
  5
EF
330
1F
100
AcDbEntity
  8
0
  6
Continuous
 62
     7
370
    30
100
AcDbCircle
 10
3.4001921908
 20
4.9001447719
 30
0.0
 40
0.2680000000000002
100
AcDbArc
 50
180.0
 51
243.2145316219
  0
ARC
  5
F0
330
1F
100
AcDbEntity
  8
0
  6
Continuous
 62
     7
370
    30
100
AcDbCircle
 10
3.0001921908
 20
4.3431447719
 30
0.0
 40
0.0320000000000005
100
AcDbArc
 50
180.0
 51
278.8498830984
  0
ARC
  5
F1
330
1F
100
AcDbEntity
  8
0
  6
Continuous
 62
     7
370
    30
100
AcDbCircle
 10
3.2591383826
 20
4.620729627
 30
0.0
 40
0.0450000000000002
100
AcDbArc
 50
351.9770130931
 51
63.2145316219
  0
ARC
  5
F2
330
1F
100
AcDbEntity
  8
0
  6
Continuous
 62
     7
370
    30
100
AcDbCircle
 10
2.9501921908
 20
4.6642755864
 30
0.0
 40
0.3569999999999999
100
AcDbArc
 50
278.8498830984
 51
351.9770130931
  0
ARC
  5
F3
330
1F
100
AcDbEntity
  8
0
  6
Continuous
 62
     7
370
    30
100
AcDbCircle
 10
3.0001921908
 20
4.3431447719
 30
0.0
 40
0.0500000000000003
100
AcDbArc
 50
180.0
 51
278.8498830984
  0
LINE
  5
F4
330
1F
100
AcDbEntity
  8
0
  6
Continuous
 62
     7
370
    30
100
AcDbLine
 10
2.9501921826
 20
4.4731447645
 30
0.0
 11
2.9501921826
 21
4.3431447646
 31
0.0
  0
ARC
  5
F5
330
1F
100
AcDbEntity
  8
0
  6
Continuous
 62
     7
370
    30
100
AcDbCircle
 10
2.9501921908
 20
4.6642755864
 30
0.0
 40
0.3749999999999997
100
AcDbArc
 50
278.8498830984
 51
351.9770130931
  0
ARC
  5
F6
330
1F
100
AcDbEntity
  8
0
  6
Continuous
 62
     7
370
    30
100
AcDbCircle
 10
4.5341921908
 20
5.0179653592
 30
0.0
 40
0.032
100
AcDbArc
 50
119.8355602232
 51
180.0
  0
LINE
  5
F7
330
1F
100
AcDbEntity
  8
0
  6
Continuous
 62
     7
370
    30
100
AcDbLine
 10
4.5021921938
 20
4.9001447984
 30
0.0
 11
4.5021921938
 21
5.0179653907
 31
0.0
  0
ARC
  5
F8
330
1F
100
AcDbEntity
  8
0
  6
Continuous
 62
     7
370
    30
100
AcDbCircle
 10
4.2341921908
 20
4.9001447719
 30
0.0
 40
0.2679999999999996
100
AcDbArc
 50
296.7854683781
 51
0.0
  0
ARC
  5
F9
330
1F
100
AcDbEntity
  8
0
  6
Continuous
 62
     7
370
    30
100
AcDbCircle
 10
4.375245999
 20
4.620729627
 30
0.0
 40
0.0450000000000007
100
AcDbArc
 50
116.7854683781
 51
188.0229869069
  0
ARC
  5
FA
330
1F
100
AcDbEntity
  8
0
  6
Continuous
 62
     7
370
    30
100
AcDbCircle
 10
4.6841921908
 20
4.6642755864
 30
0.0
 40
0.3569999999999999
100
AcDbArc
 50
188.0229869069
 51
261.1501169016
  0
ARC
  5
FB
330
1F
100
AcDbEntity
  8
0
  6
Continuous
 62
     7
370
    30
100
AcDbCircle
 10
4.6341921908
 20
4.3431447719
 30
0.0
 40
0.032
100
AcDbArc
 50
261.1501169016
 51
0.0
  0
LINE
  5
FC
330
1F
100
AcDbEntity
  8
0
  6
Continuous
 62
     7
370
    30
100
AcDbLine
 10
4.6661921592
 20
4.4731447645
 30
0.0
 11
4.6661921592
 21
4.3431447646
 31
0.0
  0
LINE
  5
FD
330
1F
100
AcDbEntity
  8
0
  6
Continuous
 62
     7
370
    30
100
AcDbLine
 10
4.6661921592
 20
4.4731447645
 30
0.0
 11
4.6841922046
 21
4.4731447645
 31
0.0
  0
LINE
  5
FE
330
1F
100
AcDbEntity
  8
0
  6
Continuous
 62
     7
370
    30
100
AcDbLine
 10
4.6841922046
 20
4.4731447645
 30
0.0
 11
4.6841922046
 21
4.3431447646
 31
0.0
  0
ARC
  5
FF
330
1F
100
AcDbEntity
  8
0
  6
Continuous
 62
     7
370
    30
100
AcDbCircle
 10
4.6341921908
 20
4.3431447719
 30
0.0
 40
0.0500000000000002
100
AcDbArc
 50
261.1501169016
 51
0.0
  0
ARC
  5
100
330
1F
100
AcDbEntity
  8
0
  6
Continuous
 62
     7
370
    30
100
AcDbCircle
 10
4.6841921908
 20
4.6642755864
 30
0.0
 40
0.3750000000000005
100
AcDbArc
 50
188.0229869069
 51
261.1501169016
  0
ARC
  5
101
330
1F
100
AcDbEntity
  8
0
  6
Continuous
 62
     7
370
    30
100
AcDbCircle
 10
4.375245999
 20
4.620729627
 30
0.0
 40
0.0630000000000005
100
AcDbArc
 50
116.7854683781
 51
188.0229869069
  0
LINE
  5
102
330
1F
100
AcDbEntity
  8
0
  6
Continuous
 62
     7
370
    30
100
AcDbLine
 10
4.4669201479
 20
5.1525992154
 30
0.0
 11
4.4607638123
 21
5.16951372
 31
0.0
  0
ARC
  5
103
330
1F
100
AcDbEntity
  8
0
  6
Continuous
 62
     7
370
    30
100
AcDbCircle
 10
4.4841921908
 20
5.1051447719
 30
0.0
 40
0.0685000000000004
100
AcDbArc
 50
299.8355602232
 51
110.0
  0
ARC
  5
104
330
1F
100
AcDbEntity
  8
0
  6
Continuous
 62
     7
370
    30
100
AcDbCircle
 10
4.2341921908
 20
4.9001447719
 30
0.0
 40
0.25
100
AcDbArc
 50
296.7854683781
 51
0.0
  0
ARC
  5
105
330
1F
100
AcDbEntity
  8
0
  6
Continuous
 62
     7
370
    30
100
AcDbCircle
 10
4.4841921908
 20
5.1051447719
 30
0.0
 40
0.0505000000000004
100
AcDbArc
 50
299.8355602232
 51
110.0
  0
LINE
  5
106
330
1F
100
AcDbEntity
  8
0
  6
Continuous
 62
     7
370
    30
100
AcDbLine
 10
4.4841922217
 20
4.9001447984
 30
0.0
 11
4.4841922217
 21
5.0179653907
 31
0.0
  0
ARC
  5
107
330
1F
100
AcDbEntity
  8
0
  6
Continuous
 62
     7
370
    30
100
AcDbCircle
 10
4.5341921908
 20
5.0179653592
 30
0.0
 40
0.05
100
AcDbArc
 50
119.8355602232
 51
180.0
  0
ARC
  5
108
330
1F
100
AcDbEntity
  8
0
  6
Continuous
 62
     7
370
    30
100
AcDbCircle
 10
6.2841921908
 20
5.0179653592
 30
0.0
 40
0.0320000000000012
100
AcDbArc
 50
119.8355602232
 51
180.0
  0
ARC
  5
109
330
1F
100
AcDbEntity
  8
0
  6
Continuous
 62
     7
370
    30
100
AcDbCircle
 10
5.9841921908
 20
4.9001447719
 30
0.0
 40
0.2680000000000004
100
AcDbArc
 50
296.7854683781
 51
0.0
  0
ARC
  5
10A
330
1F
100
AcDbEntity
  8
0
  6
Continuous
 62
     7
370
    30
100
AcDbCircle
 10
6.125245999
 20
4.620729627
 30
0.0
 40
0.0450000000000012
100
AcDbArc
 50
116.7854683781
 51
188.0229869069
  0
ARC
  5
10B
330
1F
100
AcDbEntity
  8
0
  6
Continuous
 62
     7
370
    30
100
AcDbCircle
 10
6.4341921908
 20
4.6642755864
 30
0.0
 40
0.3570000000000007
100
AcDbArc
 50
188.0229869069
 51
261.1501169016
  0
ARC
  5
10C
330
1F
100
AcDbEntity
  8
0
  6
Continuous
 62
     7
370
    30
100
AcDbCircle
 10
6.3841921908
 20
4.3431447719
 30
0.0
 40
0.032
100
AcDbArc
 50
261.1501169016
 51
0.0
  0
LINE
  5
10D
330
1F
100
AcDbEntity
  8
0
  6
Continuous
 62
     7
370
    30
100
AcDbLine
 10
6.4161921564
 20
4.4731447645
 30
0.0
 11
6.4161921564
 21
4.3431447646
 31
0.0
  0
LINE
  5
10E
330
1F
100
AcDbEntity
  8
0
  6
Continuous
 62
     7
370
    30
100
AcDbLine
 10
6.4161921564
 20
4.4731447645
 30
0.0
 11
6.4341922018
 21
4.4731447645
 31
0.0
  0
LINE
  5
10F
330
1F
100
AcDbEntity
  8
0
  6
Continuous
 62
     7
370
    30
100
AcDbLine
 10
6.4341922018
 20
4.4731447645
 30
0.0
 11
6.4341922018
 21
4.3431447646
 31
0.0
  0
ARC
  5
110
330
1F
100
AcDbEntity
  8
0
  6
Continuous
 62
     7
370
    30
100
AcDbCircle
 10
6.3841921908
 20
4.3431447719
 30
0.0
 40
0.0499999999999998
100
AcDbArc
 50
261.1501169016
 51
0.0
  0
ARC
  5
111
330
1F
100
AcDbEntity
  8
0
  6
Continuous
 62
     7
370
    30
100
AcDbCircle
 10
6.4341921908
 20
4.6642755864
 30
0.0
 40
0.3750000000000001
100
AcDbArc
 50
188.0229869069
 51
261.1501169016
  0
ARC
  5
112
330
1F
100
AcDbEntity
  8
0
  6
Continuous
 62
     7
370
    30
100
AcDbCircle
 10
6.125245999
 20
4.620729627
 30
0.0
 40
0.0630000000000006
100
AcDbArc
 50
116.7854683781
 51
188.0229869069
  0
ARC
  5
113
330
1F
100
AcDbEntity
  8
0
  6
Continuous
 62
     7
370
    30
100
AcDbCircle
 10
5.9841921908
 20
4.9001447719
 30
0.0
 40
0.25
100
AcDbArc
 50
296.7854683781
 51
0.0
  0
LINE
  5
114
330
1F
100
AcDbEntity
  8
0
  6
Continuous
 62
     7
370
    30
100
AcDbLine
 10
6.2341922189
 20
4.9001447984
 30
0.0
 11
6.2341922189
 21
5.0179653907
 31
0.0
  0
ARC
  5
115
330
1F
100
AcDbEntity
  8
0
  6
Continuous
 62
     7
370
    30
100
AcDbCircle
 10
6.2841921908
 20
5.0179653592
 30
0.0
 40
0.05
100
AcDbArc
 50
119.8355602232
 51
180.0
  0
ARC
  5
116
330
1F
100
AcDbEntity
  8
0
  6
Continuous
 62
     7
370
    30
100
AcDbCircle
 10
6.2341921908
 20
5.1051447719
 30
0.0
 40
0.0505000000000007
100
AcDbArc
 50
299.8355602232
 51
110.0
  0
LINE
  5
117
330
1F
100
AcDbEntity
  8
0
  6
Continuous
 62
     7
370
    30
100
AcDbLine
 10
6.2169201451
 20
5.1525992154
 30
0.0
 11
6.2107638095
 21
5.16951372
 31
0.0
  0
ARC
  5
118
330
1F
100
AcDbEntity
  8
0
  6
Continuous
 62
     7
370
    30
100
AcDbCircle
 10
6.2341921908
 20
5.1051447719
 30
0.0
 40
0.0684999999999995
100
AcDbArc
 50
299.8355602232
 51
110.0
  0
LINE
  5
119
330
1F
100
AcDbEntity
  8
0
  6
Continuous
 62
     7
370
    30
100
AcDbLine
 10
6.2521921909
 20
4.9001447984
 30
0.0
 11
6.2521921909
 21
5.0179653907
 31
0.0
  0
ARC
  5
11A
330
1F
100
AcDbEntity
  8
0
  6
Continuous
 62
     7
370
    30
100
AcDbCircle
 10
8.3501921908
 20
5.0179653592
 30
0.0
 40
0.0320000000000001
100
AcDbArc
 50
0.0
 51
60.1644397768
  0
LINE
  5
11B
330
1F
100
AcDbEntity
  8
0
  6
Continuous
 62
     7
370
    30
100
AcDbLine
 10
8.2181920729
 20
4.4731447645
 30
0.0
 11
8.2001921741
 21
4.4731447645
 31
0.0
  0
ARC
  5
11C
330
1F
100
AcDbEntity
  8
0
  6
Continuous
 62
     7
370
    30
100
AcDbCircle
 10
8.2501921908
 20
4.3431447719
 30
0.0
 40
0.0500000000000007
100
AcDbArc
 50
180.0
 51
278.8498830984
  0
ARC
  5
11D
330
1F
100
AcDbEntity
  8
0
  6
Continuous
 62
     7
370
    30
100
AcDbCircle
 10
8.2001921908
 20
4.6642755864
 30
0.0
 40
0.375
100
AcDbArc
 50
278.8498830984
 51
351.9770130931
  0
ARC
  5
11E
330
1F
100
AcDbEntity
  8
0
  6
Continuous
 62
     7
370
    30
100
AcDbCircle
 10
8.5091383826
 20
4.620729627
 30
0.0
 40
0.0629999999999996
100
AcDbArc
 50
351.9770130931
 51
63.2145316219
  0
ARC
  5
11F
330
1F
100
AcDbEntity
  8
0
  6
Continuous
 62
     7
370
    30
100
AcDbCircle
 10
8.6501921908
 20
4.9001447719
 30
0.0
 40
0.25
100
AcDbArc
 50
180.0
 51
243.2145316219
  0
LINE
  5
120
330
1F
100
AcDbEntity
  8
0
  6
Continuous
 62
     7
370
    30
100
AcDbLine
 10
8.4001921571
 20
4.9001447984
 30
0.0
 11
8.4001921571
 21
5.0179653907
 31
0.0
  0
ARC
  5
121
330
1F
100
AcDbEntity
  8
0
  6
Continuous
 62
     7
370
    30
100
AcDbCircle
 10
8.3501921908
 20
5.0179653592
 30
0.0
 40
0.0500000000000007
100
AcDbArc
 50
0.0
 51
60.1644397768
  0
ARC
  5
122
330
1F
100
AcDbEntity
  8
0
  6
Continuous
 62
     7
370
    30
100
AcDbCircle
 10
8.4001921908
 20
5.1051447719
 30
0.0
 40
0.0505000000000004
100
AcDbArc
 50
70.0
 51
240.1644397768
  0
LINE
  5
123
330
1F
100
AcDbEntity
  8
0
  6
Continuous
 62
     7
370
    30
100
AcDbLine
 10
8.4174643042
 20
5.1525992154
 30
0.0
 11
8.4236207131
 21
5.16951372
 31
0.0
  0
ARC
  5
124
330
1F
100
AcDbEntity
  8
0
  6
Continuous
 62
     7
370
    30
100
AcDbCircle
 10
8.4001921908
 20
5.1051447719
 30
0.0
 40
0.0685000000000002
100
AcDbArc
 50
70.0
 51
240.1644397768
  0
LINE
  5
125
330
1F
100
AcDbEntity
  8
0
  6
Continuous
 62
     7
370
    30
100
AcDbLine
 10
8.3821922583
 20
4.9001447984
 30
0.0
 11
8.3821922583
 21
5.0179653907
 31
0.0
  0
ARC
  5
126
330
1F
100
AcDbEntity
  8
0
  6
Continuous
 62
     7
370
    30
100
AcDbCircle
 10
8.5091383826
 20
4.620729627
 30
0.0
 40
0.0449999999999995
100
AcDbArc
 50
351.9770130931
 51
63.2145316219
  0
ARC
  5
127
330
1F
100
AcDbEntity
  8
0
  6
Continuous
 62
     7
370
    30
100
AcDbCircle
 10
8.2001921908
 20
4.6642755864
 30
0.0
 40
0.3569999999999998
100
AcDbArc
 50
278.8498830984
 51
351.9770130931
  0
LINE
  5
128
330
1F
100
AcDbEntity
  8
0
  6
Continuous
 62
     7
370
    30
100
AcDbLine
 10
8.2001921741
 20
4.4731447645
 30
0.0
 11
8.2001921741
 21
4.3431447646
 31
0.0
  0
ARC
  5
129
330
1F
100
AcDbEntity
  8
0
  6
Continuous
 62
     7
370
    30
100
AcDbCircle
 10
8.2501921908
 20
4.3431447719
 30
0.0
 40
0.0320000000000018
100
AcDbArc
 50
180.0
 51
278.8498830984
  0
LINE
  5
12A
330
1F
100
AcDbEntity
  8
0
  6
Continuous
 62
     7
370
    30
100
AcDbLine
 10
8.2181920729
 20
4.4731447645
 30
0.0
 11
8.2181920729
 21
4.3431447646
 31
0.0
  0
ARC
  5
12B
330
1F
100
AcDbEntity
  8
0
  6
Continuous
 62
     7
370
    30
100
AcDbCircle
 10
8.6501921908
 20
4.9001447719
 30
0.0
 40
0.2680000000000007
100
AcDbArc
 50
180.0
 51
243.2145316219
  0
LINE
  5
12C
330
1F
100
AcDbEntity
  8
0
  6
Continuous
 62
     7
370
    30
100
AcDbLine
 10
8.3646921938
 20
4.8681447748
 30
0.0
 11
8.0196921793
 21
4.8681447748
 31
0.0
  0
LINE
  5
12D
330
1F
100
AcDbEntity
  8
0
  6
Continuous
 62
     7
370
    30
100
AcDbLine
 10
7.9421922079
 20
5.1811447656
 30
0.0
 11
7.9421922079
 21
5.1795557973
 31
0.0
  0
LINE
  5
12E
330
1F
100
AcDbEntity
  8
0
  6
Continuous
 62
     7
370
    30
100
AcDbLine
 10
8.1013115298
 20
5.2431447427
 30
0.0
 11
8.004192185
 21
5.2431447427
 31
0.0
  0
LINE
  5
12F
330
1F
100
AcDbEntity
  8
0
  6
Continuous
 62
     7
370
    30
100
AcDbLine
 10
8.1185915968
 20
5.2331681513
 30
0.0
 11
8.1013115298
 21
5.2431447427
 31
0.0
  0
LINE
  5
130
330
1F
100
AcDbEntity
  8
0
  6
Continuous
 62
     7
370
    30
100
AcDbLine
 10
8.0982309787
 20
5.2096997758
 30
0.0
 11
8.0982309787
 21
5.2155562548
 31
0.0
  0
LINE
  5
131
330
1F
100
AcDbEntity
  8
0
  6
Continuous
 62
     7
370
    30
100
AcDbLine
 10
8.1185915968
 20
5.1979447249
 30
0.0
 11
8.0982309787
 21
5.2096997758
 31
0.0
  0
LINE
  5
132
330
1F
100
AcDbEntity
  8
0
  6
Continuous
 62
     7
370
    30
100
AcDbLine
 10
8.1185915968
 20
5.1920878792
 30
0.0
 11
8.1185915968
 21
5.1979447249
 31
0.0
  0
LINE
  5
133
330
1F
100
AcDbEntity
  8
0
  6
Continuous
 62
     7
370
    30
100
AcDbLine
 10
8.0982309787
 20
5.1803328283
 30
0.0
 11
8.1185915968
 21
5.1920878792
 31
0.0
  0
LINE
  5
134
330
1F
100
AcDbEntity
  8
0
  6
Continuous
 62
     7
370
    30
100
AcDbLine
 10
8.0982309787
 20
5.1744763493
 30
0.0
 11
8.0982309787
 21
5.1803328283
 31
0.0
  0
LINE
  5
135
330
1F
100
AcDbEntity
  8
0
  6
Continuous
 62
     7
370
    30
100
AcDbLine
 10
8.1185915968
 20
5.1627212985
 30
0.0
 11
8.0982309787
 21
5.1744763493
 31
0.0
  0
LINE
  5
136
330
1F
100
AcDbEntity
  8
0
  6
Continuous
 62
     7
370
    30
100
AcDbLine
 10
8.1185915968
 20
5.1568644528
 30
0.0
 11
8.1185915968
 21
5.1627212985
 31
0.0
  0
LINE
  5
137
330
1F
100
AcDbEntity
  8
0
  6
Continuous
 62
     7
370
    30
100
AcDbLine
 10
8.0982309787
 20
5.1451094019
 30
0.0
 11
8.1185915968
 21
5.1568644528
 31
0.0
  0
LINE
  5
138
330
1F
100
AcDbEntity
  8
0
  6
Continuous
 62
     7
370
    30
100
AcDbLine
 10
8.0982309787
 20
5.1392529229
 30
0.0
 11
8.0982309787
 21
5.1451094019
 31
0.0
  0
LINE
  5
139
330
1F
100
AcDbEntity
  8
0
  6
Continuous
 62
     7
370
    30
100
AcDbLine
 10
8.1185915968
 20
5.127497872
 30
0.0
 11
8.0982309787
 21
5.1392529229
 31
0.0
  0
LINE
  5
13A
330
1F
100
AcDbEntity
  8
0
  6
Continuous
 62
     7
370
    30
100
AcDbLine
 10
8.1185915968
 20
5.1216410264
 30
0.0
 11
8.1185915968
 21
5.127497872
 31
0.0
  0
LINE
  5
13B
330
1F
100
AcDbEntity
  8
0
  6
Continuous
 62
     7
370
    30
100
AcDbLine
 10
8.0982309787
 20
5.1098859755
 30
0.0
 11
8.1185915968
 21
5.1216410264
 31
0.0
  0
LINE
  5
13C
330
1F
100
AcDbEntity
  8
0
  6
Continuous
 62
     7
370
    30
100
AcDbLine
 10
8.0982309787
 20
5.1040294965
 30
0.0
 11
8.0982309787
 21
5.1098859755
 31
0.0
  0
LINE
  5
13D
330
1F
100
AcDbEntity
  8
0
  6
Continuous
 62
     7
370
    30
100
AcDbLine
 10
8.1185915968
 20
5.0922744456
 30
0.0
 11
8.0982309787
 21
5.1040294965
 31
0.0
  0
LINE
  5
13E
330
1F
100
AcDbEntity
  8
0
  6
Continuous
 62
     7
370
    30
100
AcDbLine
 10
8.1185915968
 20
5.0864175999
 30
0.0
 11
8.1185915968
 21
5.0922744456
 31
0.0
  0
LINE
  5
13F
330
1F
100
AcDbEntity
  8
0
  6
Continuous
 62
     7
370
    30
100
AcDbLine
 10
8.0982309787
 20
5.0746625491
 30
0.0
 11
8.1185915968
 21
5.0864175999
 31
0.0
  0
LINE
  5
140
330
1F
100
AcDbEntity
  8
0
  6
Continuous
 62
     7
370
    30
100
AcDbLine
 10
8.0982309787
 20
5.06880607
 30
0.0
 11
8.0982309787
 21
5.0746625491
 31
0.0
  0
LINE
  5
141
330
1F
100
AcDbEntity
  8
0
  6
Continuous
 62
     7
370
    30
100
AcDbLine
 10
8.1185915968
 20
5.0570510192
 30
0.0
 11
8.0982309787
 21
5.06880607
 31
0.0
  0
LINE
  5
142
330
1F
100
AcDbEntity
  8
0
  6
Continuous
 62
     7
370
    30
100
AcDbLine
 10
8.1185915968
 20
5.0511941735
 30
0.0
 11
8.1185915968
 21
5.0570510192
 31
0.0
  0
LINE
  5
143
330
1F
100
AcDbEntity
  8
0
  6
Continuous
 62
     7
370
    30
100
AcDbLine
 10
8.0982309787
 20
5.0394391226
 30
0.0
 11
8.1185915968
 21
5.0511941735
 31
0.0
  0
LINE
  5
144
330
1F
100
AcDbEntity
  8
0
  6
Continuous
 62
     7
370
    30
100
AcDbLine
 10
8.0982309787
 20
5.0335826436
 30
0.0
 11
8.0982309787
 21
5.0394391226
 31
0.0
  0
LINE
  5
145
330
1F
100
AcDbEntity
  8
0
  6
Continuous
 62
     7
370
    30
100
AcDbLine
 10
8.1185915968
 20
5.0218275927
 30
0.0
 11
8.0982309787
 21
5.0335826436
 31
0.0
  0
LINE
  5
146
330
1F
100
AcDbEntity
  8
0
  6
Continuous
 62
     7
370
    30
100
AcDbLine
 10
8.1185915968
 20
5.0159708204
 30
0.0
 11
8.1185915968
 21
5.0218275927
 31
0.0
  0
LINE
  5
147
330
1F
100
AcDbEntity
  8
0
  6
Continuous
 62
     7
370
    30
100
AcDbLine
 10
8.0982309787
 20
5.0042156962
 30
0.0
 11
8.1185915968
 21
5.0159708204
 31
0.0
  0
LINE
  5
148
330
1F
100
AcDbEntity
  8
0
  6
Continuous
 62
     7
370
    30
100
AcDbLine
 10
8.0982309787
 20
4.9983592172
 30
0.0
 11
8.0982309787
 21
5.0042156962
 31
0.0
  0
LINE
  5
149
330
1F
100
AcDbEntity
  8
0
  6
Continuous
 62
     7
370
    30
100
AcDbLine
 10
8.1028324455
 20
4.9957026745
 30
0.0
 11
8.0982309787
 21
4.9983592172
 31
0.0
  0
ARC
  5
14A
330
1F
100
AcDbEntity
  8
0
  6
Continuous
 62
     7
370
    30
100
AcDbCircle
 10
8.0931592559
 20
4.9931667941
 30
0.0
 40
0.0100000000000078
100
AcDbArc
 50
336.1596651702
 51
14.6901250941
  0
ARC
  5
14B
330
1F
100
AcDbEntity
  8
0
  6
Continuous
 62
     7
370
    30
100
AcDbCircle
 10
8.1101921908
 20
4.9591447719
 30
0.0
 40
0.0310000000000004
100
AcDbArc
 50
104.7376174516
 51
270.0
  0
LINE
  5
14C
330
1F
100
AcDbEntity
  8
0
  6
Continuous
 62
     7
370
    30
100
AcDbLine
 10
8.2741922793
 20
4.928144755
 30
0.0
 11
8.1101920938
 21
4.928144755
 31
0.0
  0
ARC
  5
14D
330
1F
100
AcDbEntity
  8
0
  6
Continuous
 62
     7
370
    30
100
AcDbCircle
 10
8.2741921908
 20
4.9591447719
 30
0.0
 40
0.0310000000000015
100
AcDbArc
 50
270.0
 51
84.5504773049
  0
LINE
  5
14E
330
1F
100
AcDbEntity
  8
0
  6
Continuous
 62
     7
370
    30
100
AcDbLine
 10
8.2657610967
 20
4.9965720312
 30
0.0
 11
8.2771361386
 21
4.990004667
 31
0.0
  0
LINE
  5
14F
330
1F
100
AcDbEntity
  8
0
  6
Continuous
 62
     7
370
    30
100
AcDbLine
 10
8.2657610967
 20
5.0024371634
 30
0.0
 11
8.2657610967
 21
4.9965720312
 31
0.0
  0
LINE
  5
150
330
1F
100
AcDbEntity
  8
0
  6
Continuous
 62
     7
370
    30
100
AcDbLine
 10
8.2861223015
 20
5.0141926543
 30
0.0
 11
8.2657610967
 21
5.0024371634
 31
0.0
  0
LINE
  5
151
330
1F
100
AcDbEntity
  8
0
  6
Continuous
 62
     7
370
    30
100
AcDbLine
 10
8.2861223015
 20
5.0200492066
 30
0.0
 11
8.2861223015
 21
5.0141926543
 31
0.0
  0
LINE
  5
152
330
1F
100
AcDbEntity
  8
0
  6
Continuous
 62
     7
370
    30
100
AcDbLine
 10
8.2657619767
 20
5.0318042575
 30
0.0
 11
8.2861223015
 21
5.0200492066
 31
0.0
  0
LINE
  5
153
330
1F
100
AcDbEntity
  8
0
  6
Continuous
 62
     7
370
    30
100
AcDbLine
 10
8.2657619767
 20
5.0376610298
 30
0.0
 11
8.2657619767
 21
5.0318042575
 31
0.0
  0
LINE
  5
154
330
1F
100
AcDbEntity
  8
0
  6
Continuous
 62
     7
370
    30
100
AcDbLine
 10
8.2861223015
 20
5.0552725597
 30
0.0
 11
8.2861223015
 21
5.0494160807
 31
0.0
  0
LINE
  5
155
330
1F
100
AcDbEntity
  8
0
  6
Continuous
 62
     7
370
    30
100
AcDbLine
 10
8.2657619767
 20
5.0728844563
 30
0.0
 11
8.2657619767
 21
5.0670276839
 31
0.0
  0
LINE
  5
156
330
1F
100
AcDbEntity
  8
0
  6
Continuous
 62
     7
370
    30
100
AcDbLine
 10
8.2861223015
 20
5.0846395071
 30
0.0
 11
8.2657619767
 21
5.0728844563
 31
0.0
  0
LINE
  5
157
330
1F
100
AcDbEntity
  8
0
  6
Continuous
 62
     7
370
    30
100
AcDbLine
 10
8.2861223015
 20
5.0904959861
 30
0.0
 11
8.2861223015
 21
5.0846395071
 31
0.0
  0
LINE
  5
158
330
1F
100
AcDbEntity
  8
0
  6
Continuous
 62
     7
370
    30
100
AcDbLine
 10
8.2657619767
 20
5.1022511103
 30
0.0
 11
8.2861223015
 21
5.0904959861
 31
0.0
  0
LINE
  5
159
330
1F
100
AcDbEntity
  8
0
  6
Continuous
 62
     7
370
    30
100
AcDbLine
 10
8.2657619767
 20
5.1081078827
 30
0.0
 11
8.2657619767
 21
5.1022511103
 31
0.0
  0
LINE
  5
15A
330
1F
100
AcDbEntity
  8
0
  6
Continuous
 62
     7
370
    30
100
AcDbLine
 10
8.2861223015
 20
5.1198629336
 30
0.0
 11
8.2657619767
 21
5.1081078827
 31
0.0
  0
LINE
  5
15B
330
1F
100
AcDbEntity
  8
0
  6
Continuous
 62
     7
370
    30
100
AcDbLine
 10
8.2657619767
 20
5.1374745368
 30
0.0
 11
8.2861223015
 21
5.1257194126
 31
0.0
  0
LINE
  5
15C
330
1F
100
AcDbEntity
  8
0
  6
Continuous
 62
     7
370
    30
100
AcDbLine
 10
8.2861223015
 20
5.15508636
 30
0.0
 11
8.2657619767
 21
5.1433313091
 31
0.0
  0
LINE
  5
15D
330
1F
100
AcDbEntity
  8
0
  6
Continuous
 62
     7
370
    30
100
AcDbLine
 10
8.2657619767
 20
5.1726978899
 30
0.0
 11
8.2861223015
 21
5.160942839
 31
0.0
  0
LINE
  5
15E
330
1F
100
AcDbEntity
  8
0
  6
Continuous
 62
     7
370
    30
100
AcDbLine
 10
8.2657619767
 20
5.1785547355
 30
0.0
 11
8.2657619767
 21
5.1726978899
 31
0.0
  0
LINE
  5
15F
330
1F
100
AcDbEntity
  8
0
  6
Continuous
 62
     7
370
    30
100
AcDbLine
 10
8.2861223015
 20
5.1961662654
 30
0.0
 11
8.2861223015
 21
5.1903097864
 31
0.0
  0
LINE
  5
160
330
1F
100
AcDbEntity
  8
0
  6
Continuous
 62
     7
370
    30
100
AcDbLine
 10
8.2657619767
 20
5.2079213163
 30
0.0
 11
8.2861223015
 21
5.1961662654
 31
0.0
  0
LINE
  5
161
330
1F
100
AcDbEntity
  8
0
  6
Continuous
 62
     7
370
    30
100
AcDbLine
 10
8.2861223015
 20
5.2255332128
 30
0.0
 11
8.2657619767
 21
5.213778162
 31
0.0
  0
LINE
  5
162
330
1F
100
AcDbEntity
  8
0
  6
Continuous
 62
     7
370
    30
100
AcDbLine
 10
8.2861223015
 20
5.2313896919
 30
0.0
 11
8.2861223015
 21
5.2255332128
 31
0.0
  0
LINE
  5
163
330
1F
100
AcDbEntity
  8
0
  6
Continuous
 62
     7
370
    30
100
AcDbLine
 10
8.2657619767
 20
5.2431447427
 30
0.0
 11
8.2861223015
 21
5.2313896919
 31
0.0
  0
LINE
  5
164
330
1F
100
AcDbEntity
  8
0
  6
Continuous
 62
     7
370
    30
100
AcDbLine
 10
8.3801923348
 20
5.2431447427
 30
0.0
 11
8.2657619767
 21
5.2431447427
 31
0.0
  0
ARC
  5
165
330
1F
100
AcDbEntity
  8
0
  6
Continuous
 62
     7
370
    30
100
AcDbCircle
 10
8.3801921908
 20
5.1811447719
 30
0.0
 40
0.0620000000000047
100
AcDbArc
 50
0.0
 51
90.0
  0
LINE
  5
166
330
1F
100
AcDbEntity
  8
0
  6
Continuous
 62
     7
370
    30
100
AcDbLine
 10
8.2657619767
 20
5.213778162
 30
0.0
 11
8.2657619767
 21
5.2079213163
 31
0.0
  0
LINE
  5
167
330
1F
100
AcDbEntity
  8
0
  6
Continuous
 62
     7
370
    30
100
AcDbLine
 10
8.4421923119
 20
5.1795557973
 30
0.0
 11
8.4421923119
 21
5.1811447656
 31
0.0
  0
ARC
  5
168
330
1F
100
AcDbEntity
  8
0
  6
Continuous
 62
     7
370
    30
100
AcDbCircle
 10
8.4321921908
 20
5.1795557926
 30
0.0
 40
0.0099999999999909
100
AcDbArc
 50
246.7301760415
 51
360.0
  0
ARC
  5
169
330
1F
100
AcDbEntity
  8
0
  6
Continuous
 62
     7
370
    30
100
AcDbCircle
 10
8.4001921908
 20
5.1051447719
 30
0.0
 40
0.0710000000000107
100
AcDbArc
 50
66.7301760415
 51
232.4184423813
  0
ARC
  5
16A
330
1F
100
AcDbEntity
  8
0
  6
Continuous
 62
     7
370
    30
100
AcDbCircle
 10
8.3446921908
 20
5.0330285463
 30
0.0
 40
0.0199999999999997
100
AcDbArc
 50
0.0
 51
52.4184423812
  0
LINE
  5
16B
330
1F
100
AcDbEntity
  8
0
  6
Continuous
 62
     7
370
    30
100
AcDbLine
 10
8.3646921938
 20
4.8681447748
 30
0.0
 11
8.3646921938
 21
5.0330285433
 31
0.0
  0
LINE
  5
16C
330
1F
100
AcDbEntity
  8
0
  6
Continuous
 62
     7
370
    30
100
AcDbLine
 10
8.0196921793
 20
5.0330285433
 30
0.0
 11
8.0196921793
 21
4.8681447748
 31
0.0
  0
ARC
  5
16D
330
1F
100
AcDbEntity
  8
0
  6
Continuous
 62
     7
370
    30
100
AcDbCircle
 10
8.0396921908
 20
5.0330285463
 30
0.0
 40
0.0200000000000004
100
AcDbArc
 50
127.5815576188
 51
180.0
  0
ARC
  5
16E
330
1F
100
AcDbEntity
  8
0
  6
Continuous
 62
     7
370
    30
100
AcDbCircle
 10
7.9841921908
 20
5.1051447719
 30
0.0
 40
0.0710000000000083
100
AcDbArc
 50
307.5815576188
 51
113.2698239585
  0
ARC
  5
16F
330
1F
100
AcDbEntity
  8
0
  6
Continuous
 62
     7
370
    30
100
AcDbCircle
 10
7.9521921908
 20
5.1795557926
 30
0.0
 40
0.0099999999999945
100
AcDbArc
 50
180.0
 51
293.2698239585
  0
LINE
  5
170
330
1F
100
AcDbEntity
  8
0
  6
Continuous
 62
     7
370
    30
100
AcDbLine
 10
8.0982309787
 20
5.2155562548
 30
0.0
 11
8.1185915968
 21
5.2273113056
 31
0.0
  0
ARC
  5
171
330
1F
100
AcDbEntity
  8
0
  6
Continuous
 62
     7
370
    30
100
AcDbCircle
 10
8.0041921908
 20
5.1811447719
 30
0.0
 40
0.0620000000000056
100
AcDbArc
 50
90.0
 51
180.0
  0
LINE
  5
172
330
1F
100
AcDbEntity
  8
0
  6
Continuous
 62
     7
370
    30
100
AcDbLine
 10
8.1185915968
 20
5.2273113056
 30
0.0
 11
8.1185915968
 21
5.2331681513
 31
0.0
  0
LINE
  5
173
330
1F
100
AcDbEntity
  8
0
  6
Continuous
 62
     7
370
    30
100
AcDbLine
 10
8.2657619767
 20
5.1433313091
 30
0.0
 11
8.2657619767
 21
5.1374745368
 31
0.0
  0
LINE
  5
174
330
1F
100
AcDbEntity
  8
0
  6
Continuous
 62
     7
370
    30
100
AcDbLine
 10
8.2861223015
 20
5.160942839
 30
0.0
 11
8.2861223015
 21
5.15508636
 31
0.0
  0
LINE
  5
175
330
1F
100
AcDbEntity
  8
0
  6
Continuous
 62
     7
370
    30
100
AcDbLine
 10
8.2861223015
 20
5.1257194126
 30
0.0
 11
8.2861223015
 21
5.1198629336
 31
0.0
  0
LINE
  5
176
330
1F
100
AcDbEntity
  8
0
  6
Continuous
 62
     7
370
    30
100
AcDbLine
 10
8.2861223015
 20
5.0494160807
 30
0.0
 11
8.2657619767
 21
5.0376610298
 31
0.0
  0
LINE
  5
177
330
1F
100
AcDbEntity
  8
0
  6
Continuous
 62
     7
370
    30
100
AcDbLine
 10
8.2861223015
 20
5.1903097864
 30
0.0
 11
8.2657619767
 21
5.1785547355
 31
0.0
  0
LINE
  5
178
330
1F
100
AcDbEntity
  8
0
  6
Continuous
 62
     7
370
    30
100
AcDbLine
 10
8.2657619767
 20
5.0670276839
 30
0.0
 11
8.2861223015
 21
5.0552725597
 31
0.0
  0
LINE
  5
179
330
1F
100
AcDbEntity
  8
0
  6
Continuous
 62
     7
370
    30
100
AcDbLine
 10
3.1921921737
 20
5.1795557973
 30
0.0
 11
3.1921921737
 21
5.1811447656
 31
0.0
  0
ARC
  5
17A
330
1F
100
AcDbEntity
  8
0
  6
Continuous
 62
     7
370
    30
100
AcDbCircle
 10
3.1821921908
 20
5.1795557926
 30
0.0
 40
0.0099999999999905
100
AcDbArc
 50
246.7301760415
 51
360.0
  0
ARC
  5
17B
330
1F
100
AcDbEntity
  8
0
  6
Continuous
 62
     7
370
    30
100
AcDbCircle
 10
3.1501921908
 20
5.1051447719
 30
0.0
 40
0.0710000000000112
100
AcDbArc
 50
66.7301760415
 51
232.4184423813
  0
ARC
  5
17C
330
1F
100
AcDbEntity
  8
0
  6
Continuous
 62
     7
370
    30
100
AcDbCircle
 10
3.0946921908
 20
5.0330285463
 30
0.0
 40
0.0199999999999987
100
AcDbArc
 50
0.0
 51
52.4184423813
  0
LINE
  5
17D
330
1F
100
AcDbEntity
  8
0
  6
Continuous
 62
     7
370
    30
100
AcDbLine
 10
3.1146922023
 20
4.8681447748
 30
0.0
 11
3.1146922023
 21
5.0330285433
 31
0.0
  0
LINE
  5
17E
330
1F
100
AcDbEntity
  8
0
  6
Continuous
 62
     7
370
    30
100
AcDbLine
 10
3.1146922023
 20
4.8681447748
 30
0.0
 11
2.7696921877
 21
4.8681447748
 31
0.0
  0
LINE
  5
17F
330
1F
100
AcDbEntity
  8
0
  6
Continuous
 62
     7
370
    30
100
AcDbLine
 10
2.7696921877
 20
5.0330285433
 30
0.0
 11
2.7696921877
 21
4.8681447748
 31
0.0
  0
ARC
  5
180
330
1F
100
AcDbEntity
  8
0
  6
Continuous
 62
     7
370
    30
100
AcDbCircle
 10
2.7896921908
 20
5.0330285463
 30
0.0
 40
0.0200000000000004
100
AcDbArc
 50
127.5815576188
 51
180.0
  0
ARC
  5
181
330
1F
100
AcDbEntity
  8
0
  6
Continuous
 62
     7
370
    30
100
AcDbCircle
 10
2.7341921908
 20
5.1051447719
 30
0.0
 40
0.0710000000000085
100
AcDbArc
 50
307.5815576188
 51
113.2698239585
  0
ARC
  5
182
330
1F
100
AcDbEntity
  8
0
  6
Continuous
 62
     7
370
    30
100
AcDbCircle
 10
2.7021921908
 20
5.1795557926
 30
0.0
 40
0.009999999999994
100
AcDbArc
 50
180.0
 51
293.2698239585
  0
LINE
  5
183
330
1F
100
AcDbEntity
  8
0
  6
Continuous
 62
     7
370
    30
100
AcDbLine
 10
2.6921920697
 20
5.1811447656
 30
0.0
 11
2.6921920697
 21
5.1795557973
 31
0.0
  0
LINE
  5
184
330
1F
100
AcDbEntity
  8
0
  6
Continuous
 62
     7
370
    30
100
AcDbLine
 10
2.8513115382
 20
5.2431447427
 30
0.0
 11
2.7541920468
 21
5.2431447427
 31
0.0
  0
LINE
  5
185
330
1F
100
AcDbEntity
  8
0
  6
Continuous
 62
     7
370
    30
100
AcDbLine
 10
2.8685916053
 20
5.2273113056
 30
0.0
 11
2.8685916053
 21
5.2331681513
 31
0.0
  0
LINE
  5
186
330
1F
100
AcDbEntity
  8
0
  6
Continuous
 62
     7
370
    30
100
AcDbLine
 10
2.8685916053
 20
5.1920878792
 30
0.0
 11
2.8685916053
 21
5.1979447249
 31
0.0
  0
LINE
  5
187
330
1F
100
AcDbEntity
  8
0
  6
Continuous
 62
     7
370
    30
100
AcDbLine
 10
2.8482309871
 20
5.1744763493
 30
0.0
 11
2.8482309871
 21
5.1803328283
 31
0.0
  0
LINE
  5
188
330
1F
100
AcDbEntity
  8
0
  6
Continuous
 62
     7
370
    30
100
AcDbLine
 10
2.8685916053
 20
5.1568644528
 30
0.0
 11
2.8685916053
 21
5.1627212985
 31
0.0
  0
LINE
  5
189
330
1F
100
AcDbEntity
  8
0
  6
Continuous
 62
     7
370
    30
100
AcDbLine
 10
2.8482309871
 20
5.1451094019
 30
0.0
 11
2.8685916053
 21
5.1568644528
 31
0.0
  0
LINE
  5
18A
330
1F
100
AcDbEntity
  8
0
  6
Continuous
 62
     7
370
    30
100
AcDbLine
 10
2.8482309871
 20
5.1392529229
 30
0.0
 11
2.8482309871
 21
5.1451094019
 31
0.0
  0
LINE
  5
18B
330
1F
100
AcDbEntity
  8
0
  6
Continuous
 62
     7
370
    30
100
AcDbLine
 10
2.8685916053
 20
5.127497872
 30
0.0
 11
2.8482309871
 21
5.1392529229
 31
0.0
  0
LINE
  5
18C
330
1F
100
AcDbEntity
  8
0
  6
Continuous
 62
     7
370
    30
100
AcDbLine
 10
2.8685916053
 20
5.1216410264
 30
0.0
 11
2.8685916053
 21
5.127497872
 31
0.0
  0
LINE
  5
18D
330
1F
100
AcDbEntity
  8
0
  6
Continuous
 62
     7
370
    30
100
AcDbLine
 10
2.8482309871
 20
5.1098859755
 30
0.0
 11
2.8685916053
 21
5.1216410264
 31
0.0
  0
LINE
  5
18E
330
1F
100
AcDbEntity
  8
0
  6
Continuous
 62
     7
370
    30
100
AcDbLine
 10
2.8482309871
 20
5.1040294965
 30
0.0
 11
2.8482309871
 21
5.1098859755
 31
0.0
  0
LINE
  5
18F
330
1F
100
AcDbEntity
  8
0
  6
Continuous
 62
     7
370
    30
100
AcDbLine
 10
2.8685916053
 20
5.0922744456
 30
0.0
 11
2.8482309871
 21
5.1040294965
 31
0.0
  0
LINE
  5
190
330
1F
100
AcDbEntity
  8
0
  6
Continuous
 62
     7
370
    30
100
AcDbLine
 10
2.8685916053
 20
5.0864175999
 30
0.0
 11
2.8685916053
 21
5.0922744456
 31
0.0
  0
LINE
  5
191
330
1F
100
AcDbEntity
  8
0
  6
Continuous
 62
     7
370
    30
100
AcDbLine
 10
2.8482309871
 20
5.0746625491
 30
0.0
 11
2.8685916053
 21
5.0864175999
 31
0.0
  0
LINE
  5
192
330
1F
100
AcDbEntity
  8
0
  6
Continuous
 62
     7
370
    30
100
AcDbLine
 10
2.8482309871
 20
5.06880607
 30
0.0
 11
2.8482309871
 21
5.0746625491
 31
0.0
  0
LINE
  5
193
330
1F
100
AcDbEntity
  8
0
  6
Continuous
 62
     7
370
    30
100
AcDbLine
 10
2.8685916053
 20
5.0570510192
 30
0.0
 11
2.8482309871
 21
5.06880607
 31
0.0
  0
LINE
  5
194
330
1F
100
AcDbEntity
  8
0
  6
Continuous
 62
     7
370
    30
100
AcDbLine
 10
2.8685916053
 20
5.0511941735
 30
0.0
 11
2.8685916053
 21
5.0570510192
 31
0.0
  0
LINE
  5
195
330
1F
100
AcDbEntity
  8
0
  6
Continuous
 62
     7
370
    30
100
AcDbLine
 10
2.8482309871
 20
5.0394391226
 30
0.0
 11
2.8685916053
 21
5.0511941735
 31
0.0
  0
LINE
  5
196
330
1F
100
AcDbEntity
  8
0
  6
Continuous
 62
     7
370
    30
100
AcDbLine
 10
2.8482309871
 20
5.0335826436
 30
0.0
 11
2.8482309871
 21
5.0394391226
 31
0.0
  0
LINE
  5
197
330
1F
100
AcDbEntity
  8
0
  6
Continuous
 62
     7
370
    30
100
AcDbLine
 10
2.8685916053
 20
5.0218275927
 30
0.0
 11
2.8482309871
 21
5.0335826436
 31
0.0
  0
LINE
  5
198
330
1F
100
AcDbEntity
  8
0
  6
Continuous
 62
     7
370
    30
100
AcDbLine
 10
2.8685916053
 20
5.0159708204
 30
0.0
 11
2.8685916053
 21
5.0218275927
 31
0.0
  0
LINE
  5
199
330
1F
100
AcDbEntity
  8
0
  6
Continuous
 62
     7
370
    30
100
AcDbLine
 10
2.8482309871
 20
5.0042156962
 30
0.0
 11
2.8685916053
 21
5.0159708204
 31
0.0
  0
LINE
  5
19A
330
1F
100
AcDbEntity
  8
0
  6
Continuous
 62
     7
370
    30
100
AcDbLine
 10
2.8482309871
 20
4.9983592172
 30
0.0
 11
2.8482309871
 21
5.0042156962
 31
0.0
  0
LINE
  5
19B
330
1F
100
AcDbEntity
  8
0
  6
Continuous
 62
     7
370
    30
100
AcDbLine
 10
2.852832454
 20
4.9957026745
 30
0.0
 11
2.8482309871
 21
4.9983592172
 31
0.0
  0
ARC
  5
19C
330
1F
100
AcDbEntity
  8
0
  6
Continuous
 62
     7
370
    30
100
AcDbCircle
 10
2.8431592559
 20
4.9931667941
 30
0.0
 40
0.0100000000000089
100
AcDbArc
 50
336.1596651702
 51
14.6901250941
  0
LINE
  5
19D
330
1F
100
AcDbEntity
  8
0
  6
Continuous
 62
     7
370
    30
100
AcDbLine
 10
3.0241922877
 20
4.928144755
 30
0.0
 11
2.8601921023
 21
4.928144755
 31
0.0
  0
LINE
  5
19E
330
1F
100
AcDbEntity
  8
0
  6
Continuous
 62
     7
370
    30
100
AcDbLine
 10
3.0157611051
 20
4.9965720312
 30
0.0
 11
3.0271361471
 21
4.990004667
 31
0.0
  0
LINE
  5
19F
330
1F
100
AcDbEntity
  8
0
  6
Continuous
 62
     7
370
    30
100
AcDbLine
 10
3.0157611051
 20
5.0024371634
 30
0.0
 11
3.0157611051
 21
4.9965720312
 31
0.0
  0
LINE
  5
1A0
330
1F
100
AcDbEntity
  8
0
  6
Continuous
 62
     7
370
    30
100
AcDbLine
 10
3.0361223099
 20
5.0141926543
 30
0.0
 11
3.0157611051
 21
5.0024371634
 31
0.0
  0
LINE
  5
1A1
330
1F
100
AcDbEntity
  8
0
  6
Continuous
 62
     7
370
    30
100
AcDbLine
 10
3.0361223099
 20
5.0200492066
 30
0.0
 11
3.0361223099
 21
5.0141926543
 31
0.0
  0
LINE
  5
1A2
330
1F
100
AcDbEntity
  8
0
  6
Continuous
 62
     7
370
    30
100
AcDbLine
 10
3.0157619851
 20
5.0318042575
 30
0.0
 11
3.0361223099
 21
5.0200492066
 31
0.0
  0
LINE
  5
1A3
330
1F
100
AcDbEntity
  8
0
  6
Continuous
 62
     7
370
    30
100
AcDbLine
 10
3.0157619851
 20
5.0376610298
 30
0.0
 11
3.0157619851
 21
5.0318042575
 31
0.0
  0
LINE
  5
1A4
330
1F
100
AcDbEntity
  8
0
  6
Continuous
 62
     7
370
    30
100
AcDbLine
 10
3.0361223099
 20
5.0494160807
 30
0.0
 11
3.0157619851
 21
5.0376610298
 31
0.0
  0
LINE
  5
1A5
330
1F
100
AcDbEntity
  8
0
  6
Continuous
 62
     7
370
    30
100
AcDbLine
 10
3.0361223099
 20
5.0552725597
 30
0.0
 11
3.0361223099
 21
5.0494160807
 31
0.0
  0
LINE
  5
1A6
330
1F
100
AcDbEntity
  8
0
  6
Continuous
 62
     7
370
    30
100
AcDbLine
 10
3.0157619851
 20
5.0728844563
 30
0.0
 11
3.0157619851
 21
5.0670276839
 31
0.0
  0
LINE
  5
1A7
330
1F
100
AcDbEntity
  8
0
  6
Continuous
 62
     7
370
    30
100
AcDbLine
 10
3.0361223099
 20
5.0904959861
 30
0.0
 11
3.0361223099
 21
5.0846395071
 31
0.0
  0
LINE
  5
1A8
330
1F
100
AcDbEntity
  8
0
  6
Continuous
 62
     7
370
    30
100
AcDbLine
 10
3.0361223099
 20
5.1257194126
 30
0.0
 11
3.0361223099
 21
5.1198629336
 31
0.0
  0
LINE
  5
1A9
330
1F
100
AcDbEntity
  8
0
  6
Continuous
 62
     7
370
    30
100
AcDbLine
 10
3.0157619851
 20
5.1433313091
 30
0.0
 11
3.0157619851
 21
5.1374745368
 31
0.0
  0
LINE
  5
1AA
330
1F
100
AcDbEntity
  8
0
  6
Continuous
 62
     7
370
    30
100
AcDbLine
 10
3.0361223099
 20
5.15508636
 30
0.0
 11
3.0157619851
 21
5.1433313091
 31
0.0
  0
LINE
  5
1AB
330
1F
100
AcDbEntity
  8
0
  6
Continuous
 62
     7
370
    30
100
AcDbLine
 10
3.0361223099
 20
5.160942839
 30
0.0
 11
3.0361223099
 21
5.15508636
 31
0.0
  0
LINE
  5
1AC
330
1F
100
AcDbEntity
  8
0
  6
Continuous
 62
     7
370
    30
100
AcDbLine
 10
3.0157619851
 20
5.1785547355
 30
0.0
 11
3.0157619851
 21
5.1726978899
 31
0.0
  0
LINE
  5
1AD
330
1F
100
AcDbEntity
  8
0
  6
Continuous
 62
     7
370
    30
100
AcDbLine
 10
3.0361223099
 20
5.1961662654
 30
0.0
 11
3.0361223099
 21
5.1903097864
 31
0.0
  0
LINE
  5
1AE
330
1F
100
AcDbEntity
  8
0
  6
Continuous
 62
     7
370
    30
100
AcDbLine
 10
3.0157619851
 20
5.2079213163
 30
0.0
 11
3.0361223099
 21
5.1961662654
 31
0.0
  0
LINE
  5
1AF
330
1F
100
AcDbEntity
  8
0
  6
Continuous
 62
     7
370
    30
100
AcDbLine
 10
3.0157619851
 20
5.213778162
 30
0.0
 11
3.0157619851
 21
5.2079213163
 31
0.0
  0
LINE
  5
1B0
330
1F
100
AcDbEntity
  8
0
  6
Continuous
 62
     7
370
    30
100
AcDbLine
 10
3.0361223099
 20
5.2313896919
 30
0.0
 11
3.0361223099
 21
5.2255332128
 31
0.0
  0
LINE
  5
1B1
330
1F
100
AcDbEntity
  8
0
  6
Continuous
 62
     7
370
    30
100
AcDbLine
 10
3.0157619851
 20
5.2431447427
 30
0.0
 11
3.0361223099
 21
5.2313896919
 31
0.0
  0
LINE
  5
1B2
330
1F
100
AcDbEntity
  8
0
  6
Continuous
 62
     7
370
    30
100
AcDbLine
 10
3.1301921966
 20
5.2431447427
 30
0.0
 11
3.0157619851
 21
5.2431447427
 31
0.0
  0
ARC
  5
1B3
330
1F
100
AcDbEntity
  8
0
  6
Continuous
 62
     7
370
    30
100
AcDbCircle
 10
3.1301921908
 20
5.1811447719
 30
0.0
 40
0.0620000000000029
100
AcDbArc
 50
0.0
 51
90.0
  0
LINE
  5
1B4
330
1F
100
AcDbEntity
  8
0
  6
Continuous
 62
     7
370
    30
100
AcDbLine
 10
3.0361223099
 20
5.0846395071
 30
0.0
 11
3.0157619851
 21
5.0728844563
 31
0.0
  0
LINE
  5
1B5
330
1F
100
AcDbEntity
  8
0
  6
Continuous
 62
     7
370
    30
100
AcDbLine
 10
3.0157619851
 20
5.1022511103
 30
0.0
 11
3.0361223099
 21
5.0904959861
 31
0.0
  0
LINE
  5
1B6
330
1F
100
AcDbEntity
  8
0
  6
Continuous
 62
     7
370
    30
100
AcDbLine
 10
3.0157619851
 20
5.1081078827
 30
0.0
 11
3.0157619851
 21
5.1022511103
 31
0.0
  0
LINE
  5
1B7
330
1F
100
AcDbEntity
  8
0
  6
Continuous
 62
     7
370
    30
100
AcDbLine
 10
3.0361223099
 20
5.1198629336
 30
0.0
 11
3.0157619851
 21
5.1081078827
 31
0.0
  0
LINE
  5
1B8
330
1F
100
AcDbEntity
  8
0
  6
Continuous
 62
     7
370
    30
100
AcDbLine
 10
3.0157619851
 20
5.1374745368
 30
0.0
 11
3.0361223099
 21
5.1257194126
 31
0.0
  0
LINE
  5
1B9
330
1F
100
AcDbEntity
  8
0
  6
Continuous
 62
     7
370
    30
100
AcDbLine
 10
3.0157619851
 20
5.1726978899
 30
0.0
 11
3.0361223099
 21
5.160942839
 31
0.0
  0
LINE
  5
1BA
330
1F
100
AcDbEntity
  8
0
  6
Continuous
 62
     7
370
    30
100
AcDbLine
 10
3.0361223099
 20
5.2255332128
 30
0.0
 11
3.0157619851
 21
5.213778162
 31
0.0
  0
ARC
  5
1BB
330
1F
100
AcDbEntity
  8
0
  6
Continuous
 62
     7
370
    30
100
AcDbCircle
 10
3.0241921908
 20
4.9591447719
 30
0.0
 40
0.0310000000000005
100
AcDbArc
 50
270.0
 51
84.5504773049
  0
LINE
  5
1BC
330
1F
100
AcDbEntity
  8
0
  6
Continuous
 62
     7
370
    30
100
AcDbLine
 10
2.8685916053
 20
5.2331681513
 30
0.0
 11
2.8513115382
 21
5.2431447427
 31
0.0
  0
LINE
  5
1BD
330
1F
100
AcDbEntity
  8
0
  6
Continuous
 62
     7
370
    30
100
AcDbLine
 10
2.8482309871
 20
5.2155562548
 30
0.0
 11
2.8685916053
 21
5.2273113056
 31
0.0
  0
ARC
  5
1BE
330
1F
100
AcDbEntity
  8
0
  6
Continuous
 62
     7
370
    30
100
AcDbCircle
 10
2.7541921908
 20
5.1811447719
 30
0.0
 40
0.0620000000000038
100
AcDbArc
 50
90.0
 51
180.0
  0
LINE
  5
1BF
330
1F
100
AcDbEntity
  8
0
  6
Continuous
 62
     7
370
    30
100
AcDbLine
 10
2.8482309871
 20
5.1803328283
 30
0.0
 11
2.8685916053
 21
5.1920878792
 31
0.0
  0
LINE
  5
1C0
330
1F
100
AcDbEntity
  8
0
  6
Continuous
 62
     7
370
    30
100
AcDbLine
 10
3.0157619851
 20
5.0670276839
 30
0.0
 11
3.0361223099
 21
5.0552725597
 31
0.0
  0
LINE
  5
1C1
330
1F
100
AcDbEntity
  8
0
  6
Continuous
 62
     7
370
    30
100
AcDbLine
 10
2.8685916053
 20
5.1627212985
 30
0.0
 11
2.8482309871
 21
5.1744763493
 31
0.0
  0
LINE
  5
1C2
330
1F
100
AcDbEntity
  8
0
  6
Continuous
 62
     7
370
    30
100
AcDbLine
 10
2.8482309871
 20
5.2096997758
 30
0.0
 11
2.8482309871
 21
5.2155562548
 31
0.0
  0
LINE
  5
1C3
330
1F
100
AcDbEntity
  8
0
  6
Continuous
 62
     7
370
    30
100
AcDbLine
 10
3.0361223099
 20
5.1903097864
 30
0.0
 11
3.0157619851
 21
5.1785547355
 31
0.0
  0
LINE
  5
1C4
330
1F
100
AcDbEntity
  8
0
  6
Continuous
 62
     7
370
    30
100
AcDbLine
 10
2.8685916053
 20
5.1979447249
 30
0.0
 11
2.8482309871
 21
5.2096997758
 31
0.0
  0
ARC
  5
1C5
330
1F
100
AcDbEntity
  8
0
  6
Continuous
 62
     7
370
    30
100
AcDbCircle
 10
2.8601921908
 20
4.9591447719
 30
0.0
 40
0.0309999999999998
100
AcDbArc
 50
104.7376174516
 51
270.0
  0
LINE
  5
1C6
330
1F
100
AcDbEntity
  8
0
  6
Continuous
 62
     7
370
    30
100
AcDbLine
 10
6.692192168
 20
5.1795557973
 30
0.0
 11
6.692192168
 21
5.1811447656
 31
0.0
  0
ARC
  5
1C7
330
1F
100
AcDbEntity
  8
0
  6
Continuous
 62
     7
370
    30
100
AcDbCircle
 10
6.5946921908
 20
5.0330285463
 30
0.0
 40
0.0199999999999991
100
AcDbArc
 50
0.0
 51
52.4184423812
  0
LINE
  5
1C8
330
1F
100
AcDbEntity
  8
0
  6
Continuous
 62
     7
370
    30
100
AcDbLine
 10
6.6146921966
 20
4.8681447748
 30
0.0
 11
6.2696921821
 21
4.8681447748
 31
0.0
  0
LINE
  5
1C9
330
1F
100
AcDbEntity
  8
0
  6
Continuous
 62
     7
370
    30
100
AcDbLine
 10
6.1921922107
 20
5.1811447656
 30
0.0
 11
6.1921922107
 21
5.1795557973
 31
0.0
  0
LINE
  5
1CA
330
1F
100
AcDbEntity
  8
0
  6
Continuous
 62
     7
370
    30
100
AcDbLine
 10
6.3513114592
 20
5.2431447427
 30
0.0
 11
6.2541921878
 21
5.2431447427
 31
0.0
  0
LINE
  5
1CB
330
1F
100
AcDbEntity
  8
0
  6
Continuous
 62
     7
370
    30
100
AcDbLine
 10
6.5361223776
 20
5.1257194126
 30
0.0
 11
6.5361223776
 21
5.1198629336
 31
0.0
  0
LINE
  5
1CC
330
1F
100
AcDbEntity
  8
0
  6
Continuous
 62
     7
370
    30
100
AcDbLine
 10
6.5361223776
 20
5.160942839
 30
0.0
 11
6.5361223776
 21
5.15508636
 31
0.0
  0
LINE
  5
1CD
330
1F
100
AcDbEntity
  8
0
  6
Continuous
 62
     7
370
    30
100
AcDbLine
 10
6.5157619795
 20
5.1785547355
 30
0.0
 11
6.5157619795
 21
5.1726978899
 31
0.0
  0
LINE
  5
1CE
330
1F
100
AcDbEntity
  8
0
  6
Continuous
 62
     7
370
    30
100
AcDbLine
 10
6.5361223776
 20
5.1961662654
 30
0.0
 11
6.5361223776
 21
5.1903097864
 31
0.0
  0
LINE
  5
1CF
330
1F
100
AcDbEntity
  8
0
  6
Continuous
 62
     7
370
    30
100
AcDbLine
 10
6.5157619795
 20
5.213778162
 30
0.0
 11
6.5157619795
 21
5.2079213163
 31
0.0
  0
LINE
  5
1D0
330
1F
100
AcDbEntity
  8
0
  6
Continuous
 62
     7
370
    30
100
AcDbLine
 10
6.5361223776
 20
5.2313896919
 30
0.0
 11
6.5361223776
 21
5.2255332128
 31
0.0
  0
LINE
  5
1D1
330
1F
100
AcDbEntity
  8
0
  6
Continuous
 62
     7
370
    30
100
AcDbLine
 10
6.6301921909
 20
5.2431447427
 30
0.0
 11
6.5157619795
 21
5.2431447427
 31
0.0
  0
ARC
  5
1D2
330
1F
100
AcDbEntity
  8
0
  6
Continuous
 62
     7
370
    30
100
AcDbCircle
 10
6.6301921908
 20
5.1811447719
 30
0.0
 40
0.0620000000000029
100
AcDbArc
 50
0.0
 51
90.0
  0
LINE
  5
1D3
330
1F
100
AcDbEntity
  8
0
  6
Continuous
 62
     7
370
    30
100
AcDbLine
 10
6.5157611728
 20
5.0024371634
 30
0.0
 11
6.5157611728
 21
4.9965720312
 31
0.0
  0
ARC
  5
1D4
330
1F
100
AcDbEntity
  8
0
  6
Continuous
 62
     7
370
    30
100
AcDbCircle
 10
6.6821921908
 20
5.1795557926
 30
0.0
 40
0.0099999999999909
100
AcDbArc
 50
246.7301760415
 51
360.0
  0
ARC
  5
1D5
330
1F
100
AcDbEntity
  8
0
  6
Continuous
 62
     7
370
    30
100
AcDbCircle
 10
6.3601921908
 20
4.9591447719
 30
0.0
 40
0.0310000000000004
100
AcDbArc
 50
104.7376174516
 51
270.0
  0
LINE
  5
1D6
330
1F
100
AcDbEntity
  8
0
  6
Continuous
 62
     7
370
    30
100
AcDbLine
 10
6.5157619795
 20
5.0728844563
 30
0.0
 11
6.5157619795
 21
5.0670276839
 31
0.0
  0
LINE
  5
1D7
330
1F
100
AcDbEntity
  8
0
  6
Continuous
 62
     7
370
    30
100
AcDbLine
 10
6.352832375
 20
4.9957026745
 30
0.0
 11
6.3482311282
 21
4.9983592172
 31
0.0
  0
LINE
  5
1D8
330
1F
100
AcDbEntity
  8
0
  6
Continuous
 62
     7
370
    30
100
AcDbLine
 10
6.5241922088
 20
4.928144755
 30
0.0
 11
6.36019217
 21
4.928144755
 31
0.0
  0
LINE
  5
1D9
330
1F
100
AcDbEntity
  8
0
  6
Continuous
 62
     7
370
    30
100
AcDbLine
 10
6.5157619795
 20
5.1433313091
 30
0.0
 11
6.5157619795
 21
5.1374745368
 31
0.0
  0
ARC
  5
1DA
330
1F
100
AcDbEntity
  8
0
  6
Continuous
 62
     7
370
    30
100
AcDbCircle
 10
6.5241921908
 20
4.9591447719
 30
0.0
 40
0.0310000000000015
100
AcDbArc
 50
270.0
 51
84.5504773049
  0
LINE
  5
1DB
330
1F
100
AcDbEntity
  8
0
  6
Continuous
 62
     7
370
    30
100
AcDbLine
 10
6.5361223776
 20
5.0552725597
 30
0.0
 11
6.5361223776
 21
5.0494160807
 31
0.0
  0
LINE
  5
1DC
330
1F
100
AcDbEntity
  8
0
  6
Continuous
 62
     7
370
    30
100
AcDbLine
 10
6.5157619795
 20
5.0376610298
 30
0.0
 11
6.5157619795
 21
5.0318042575
 31
0.0
  0
LINE
  5
1DD
330
1F
100
AcDbEntity
  8
0
  6
Continuous
 62
     7
370
    30
100
AcDbLine
 10
6.5361223776
 20
5.0200492066
 30
0.0
 11
6.5361223776
 21
5.0141926543
 31
0.0
  0
LINE
  5
1DE
330
1F
100
AcDbEntity
  8
0
  6
Continuous
 62
     7
370
    30
100
AcDbLine
 10
6.6146921966
 20
4.8681447748
 30
0.0
 11
6.6146921966
 21
5.0330285433
 31
0.0
  0
ARC
  5
1DF
330
1F
100
AcDbEntity
  8
0
  6
Continuous
 62
     7
370
    30
100
AcDbCircle
 10
6.2896921908
 20
5.0330285463
 30
0.0
 40
0.0200000000000005
100
AcDbArc
 50
127.5815576188
 51
180.0
  0
ARC
  5
1E0
330
1F
100
AcDbEntity
  8
0
  6
Continuous
 62
     7
370
    30
100
AcDbCircle
 10
6.6501921908
 20
5.1051447719
 30
0.0
 40
0.0710000000000107
100
AcDbArc
 50
66.7301760415
 51
232.4184423813
  0
LINE
  5
1E1
330
1F
100
AcDbEntity
  8
0
  6
Continuous
 62
     7
370
    30
100
AcDbLine
 10
6.5157619795
 20
5.1726978899
 30
0.0
 11
6.5361223776
 21
5.160942839
 31
0.0
  0
LINE
  5
1E2
330
1F
100
AcDbEntity
  8
0
  6
Continuous
 62
     7
370
    30
100
AcDbLine
 10
6.5361223776
 20
5.2255332128
 30
0.0
 11
6.5157619795
 21
5.213778162
 31
0.0
  0
LINE
  5
1E3
330
1F
100
AcDbEntity
  8
0
  6
Continuous
 62
     7
370
    30
100
AcDbLine
 10
6.5361223776
 20
5.0904959861
 30
0.0
 11
6.5361223776
 21
5.0846395071
 31
0.0
  0
LINE
  5
1E4
330
1F
100
AcDbEntity
  8
0
  6
Continuous
 62
     7
370
    30
100
AcDbLine
 10
6.3482311282
 20
5.1803328283
 30
0.0
 11
6.368591453
 21
5.1920878792
 31
0.0
  0
LINE
  5
1E5
330
1F
100
AcDbEntity
  8
0
  6
Continuous
 62
     7
370
    30
100
AcDbLine
 10
6.368591453
 20
5.1627212985
 30
0.0
 11
6.3482311282
 21
5.1744763493
 31
0.0
  0
LINE
  5
1E6
330
1F
100
AcDbEntity
  8
0
  6
Continuous
 62
     7
370
    30
100
AcDbLine
 10
6.3482311282
 20
5.1451094019
 30
0.0
 11
6.368591453
 21
5.1568644528
 31
0.0
  0
LINE
  5
1E7
330
1F
100
AcDbEntity
  8
0
  6
Continuous
 62
     7
370
    30
100
AcDbLine
 10
6.368591453
 20
5.127497872
 30
0.0
 11
6.3482311282
 21
5.1392529229
 31
0.0
  0
LINE
  5
1E8
330
1F
100
AcDbEntity
  8
0
  6
Continuous
 62
     7
370
    30
100
AcDbLine
 10
6.3482311282
 20
5.1098859755
 30
0.0
 11
6.368591453
 21
5.1216410264
 31
0.0
  0
LINE
  5
1E9
330
1F
100
AcDbEntity
  8
0
  6
Continuous
 62
     7
370
    30
100
AcDbLine
 10
6.368591453
 20
5.0922744456
 30
0.0
 11
6.3482311282
 21
5.1040294965
 31
0.0
  0
LINE
  5
1EA
330
1F
100
AcDbEntity
  8
0
  6
Continuous
 62
     7
370
    30
100
AcDbLine
 10
6.3482311282
 20
5.0746625491
 30
0.0
 11
6.368591453
 21
5.0864175999
 31
0.0
  0
LINE
  5
1EB
330
1F
100
AcDbEntity
  8
0
  6
Continuous
 62
     7
370
    30
100
AcDbLine
 10
6.368591453
 20
5.0570510192
 30
0.0
 11
6.3482311282
 21
5.06880607
 31
0.0
  0
LINE
  5
1EC
330
1F
100
AcDbEntity
  8
0
  6
Continuous
 62
     7
370
    30
100
AcDbLine
 10
6.3482311282
 20
5.0394391226
 30
0.0
 11
6.368591453
 21
5.0511941735
 31
0.0
  0
LINE
  5
1ED
330
1F
100
AcDbEntity
  8
0
  6
Continuous
 62
     7
370
    30
100
AcDbLine
 10
6.368591453
 20
5.0218275927
 30
0.0
 11
6.3482311282
 21
5.0335826436
 31
0.0
  0
LINE
  5
1EE
330
1F
100
AcDbEntity
  8
0
  6
Continuous
 62
     7
370
    30
100
AcDbLine
 10
6.3482311282
 20
5.0042156962
 30
0.0
 11
6.368591453
 21
5.0159708204
 31
0.0
  0
ARC
  5
1EF
330
1F
100
AcDbEntity
  8
0
  6
Continuous
 62
     7
370
    30
100
AcDbCircle
 10
6.3431592559
 20
4.9931667941
 30
0.0
 40
0.0100000000000086
100
AcDbArc
 50
336.1596651702
 51
14.6901250941
  0
LINE
  5
1F0
330
1F
100
AcDbEntity
  8
0
  6
Continuous
 62
     7
370
    30
100
AcDbLine
 10
6.2696921821
 20
5.0330285433
 30
0.0
 11
6.2696921821
 21
4.8681447748
 31
0.0
  0
LINE
  5
1F1
330
1F
100
AcDbEntity
  8
0
  6
Continuous
 62
     7
370
    30
100
AcDbLine
 10
6.5157611728
 20
4.9965720312
 30
0.0
 11
6.5271362148
 21
4.990004667
 31
0.0
  0
LINE
  5
1F2
330
1F
100
AcDbEntity
  8
0
  6
Continuous
 62
     7
370
    30
100
AcDbLine
 10
6.5157619795
 20
5.0318042575
 30
0.0
 11
6.5361223776
 21
5.0200492066
 31
0.0
  0
LINE
  5
1F3
330
1F
100
AcDbEntity
  8
0
  6
Continuous
 62
     7
370
    30
100
AcDbLine
 10
6.5361223776
 20
5.0494160807
 30
0.0
 11
6.5157619795
 21
5.0376610298
 31
0.0
  0
LINE
  5
1F4
330
1F
100
AcDbEntity
  8
0
  6
Continuous
 62
     7
370
    30
100
AcDbLine
 10
6.5361223776
 20
5.0846395071
 30
0.0
 11
6.5157619795
 21
5.0728844563
 31
0.0
  0
LINE
  5
1F5
330
1F
100
AcDbEntity
  8
0
  6
Continuous
 62
     7
370
    30
100
AcDbLine
 10
6.5157619795
 20
5.1081078827
 30
0.0
 11
6.5157619795
 21
5.1022511103
 31
0.0
  0
LINE
  5
1F6
330
1F
100
AcDbEntity
  8
0
  6
Continuous
 62
     7
370
    30
100
AcDbLine
 10
6.5361223776
 20
5.1198629336
 30
0.0
 11
6.5157619795
 21
5.1081078827
 31
0.0
  0
LINE
  5
1F7
330
1F
100
AcDbEntity
  8
0
  6
Continuous
 62
     7
370
    30
100
AcDbLine
 10
6.368591453
 20
5.2331681513
 30
0.0
 11
6.3513114592
 21
5.2431447427
 31
0.0
  0
LINE
  5
1F8
330
1F
100
AcDbEntity
  8
0
  6
Continuous
 62
     7
370
    30
100
AcDbLine
 10
6.368591453
 20
5.0511941735
 30
0.0
 11
6.368591453
 21
5.0570510192
 31
0.0
  0
LINE
  5
1F9
330
1F
100
AcDbEntity
  8
0
  6
Continuous
 62
     7
370
    30
100
AcDbLine
 10
6.368591453
 20
5.0159708204
 30
0.0
 11
6.368591453
 21
5.0218275927
 31
0.0
  0
LINE
  5
1FA
330
1F
100
AcDbEntity
  8
0
  6
Continuous
 62
     7
370
    30
100
AcDbLine
 10
6.3482311282
 20
4.9983592172
 30
0.0
 11
6.3482311282
 21
5.0042156962
 31
0.0
  0
ARC
  5
1FB
330
1F
100
AcDbEntity
  8
0
  6
Continuous
 62
     7
370
    30
100
AcDbCircle
 10
6.2021921908
 20
5.1795557926
 30
0.0
 40
0.0099999999999945
100
AcDbArc
 50
180.0
 51
293.2698239585
  0
ARC
  5
1FC
330
1F
100
AcDbEntity
  8
0
  6
Continuous
 62
     7
370
    30
100
AcDbCircle
 10
6.2541921908
 20
5.1811447719
 30
0.0
 40
0.0620000000000047
100
AcDbArc
 50
90.0
 51
180.0
  0
LINE
  5
1FD
330
1F
100
AcDbEntity
  8
0
  6
Continuous
 62
     7
370
    30
100
AcDbLine
 10
6.5361223776
 20
5.0141926543
 30
0.0
 11
6.5157611728
 21
5.0024371634
 31
0.0
  0
LINE
  5
1FE
330
1F
100
AcDbEntity
  8
0
  6
Continuous
 62
     7
370
    30
100
AcDbLine
 10
6.5157619795
 20
5.0670276839
 30
0.0
 11
6.5361223776
 21
5.0552725597
 31
0.0
  0
LINE
  5
1FF
330
1F
100
AcDbEntity
  8
0
  6
Continuous
 62
     7
370
    30
100
AcDbLine
 10
6.368591453
 20
5.1920878792
 30
0.0
 11
6.368591453
 21
5.1979447249
 31
0.0
  0
LINE
  5
200
330
1F
100
AcDbEntity
  8
0
  6
Continuous
 62
     7
370
    30
100
AcDbLine
 10
6.5157619795
 20
5.1022511103
 30
0.0
 11
6.5361223776
 21
5.0904959861
 31
0.0
  0
LINE
  5
201
330
1F
100
AcDbEntity
  8
0
  6
Continuous
 62
     7
370
    30
100
AcDbLine
 10
6.368591453
 20
5.1568644528
 30
0.0
 11
6.368591453
 21
5.1627212985
 31
0.0
  0
LINE
  5
202
330
1F
100
AcDbEntity
  8
0
  6
Continuous
 62
     7
370
    30
100
AcDbLine
 10
6.3482311282
 20
5.1392529229
 30
0.0
 11
6.3482311282
 21
5.1451094019
 31
0.0
  0
LINE
  5
203
330
1F
100
AcDbEntity
  8
0
  6
Continuous
 62
     7
370
    30
100
AcDbLine
 10
6.5157619795
 20
5.1374745368
 30
0.0
 11
6.5361223776
 21
5.1257194126
 31
0.0
  0
LINE
  5
204
330
1F
100
AcDbEntity
  8
0
  6
Continuous
 62
     7
370
    30
100
AcDbLine
 10
6.5361223776
 20
5.15508636
 30
0.0
 11
6.5157619795
 21
5.1433313091
 31
0.0
  0
LINE
  5
205
330
1F
100
AcDbEntity
  8
0
  6
Continuous
 62
     7
370
    30
100
AcDbLine
 10
6.5361223776
 20
5.1903097864
 30
0.0
 11
6.5157619795
 21
5.1785547355
 31
0.0
  0
LINE
  5
206
330
1F
100
AcDbEntity
  8
0
  6
Continuous
 62
     7
370
    30
100
AcDbLine
 10
6.5157619795
 20
5.2079213163
 30
0.0
 11
6.5361223776
 21
5.1961662654
 31
0.0
  0
LINE
  5
207
330
1F
100
AcDbEntity
  8
0
  6
Continuous
 62
     7
370
    30
100
AcDbLine
 10
6.5157619795
 20
5.2431447427
 30
0.0
 11
6.5361223776
 21
5.2313896919
 31
0.0
  0
ARC
  5
208
330
1F
100
AcDbEntity
  8
0
  6
Continuous
 62
     7
370
    30
100
AcDbCircle
 10
6.2341921908
 20
5.1051447719
 30
0.0
 40
0.0710000000000088
100
AcDbArc
 50
307.5815576188
 51
113.2698239585
  0
LINE
  5
209
330
1F
100
AcDbEntity
  8
0
  6
Continuous
 62
     7
370
    30
100
AcDbLine
 10
6.3482311282
 20
5.2155562548
 30
0.0
 11
6.368591453
 21
5.2273113056
 31
0.0
  0
LINE
  5
20A
330
1F
100
AcDbEntity
  8
0
  6
Continuous
 62
     7
370
    30
100
AcDbLine
 10
6.368591453
 20
5.1979447249
 30
0.0
 11
6.3482311282
 21
5.2096997758
 31
0.0
  0
LINE
  5
20B
330
1F
100
AcDbEntity
  8
0
  6
Continuous
 62
     7
370
    30
100
AcDbLine
 10
6.368591453
 20
5.2273113056
 30
0.0
 11
6.368591453
 21
5.2331681513
 31
0.0
  0
LINE
  5
20C
330
1F
100
AcDbEntity
  8
0
  6
Continuous
 62
     7
370
    30
100
AcDbLine
 10
6.3482311282
 20
5.2096997758
 30
0.0
 11
6.3482311282
 21
5.2155562548
 31
0.0
  0
LINE
  5
20D
330
1F
100
AcDbEntity
  8
0
  6
Continuous
 62
     7
370
    30
100
AcDbLine
 10
6.3482311282
 20
5.1744763493
 30
0.0
 11
6.3482311282
 21
5.1803328283
 31
0.0
  0
LINE
  5
20E
330
1F
100
AcDbEntity
  8
0
  6
Continuous
 62
     7
370
    30
100
AcDbLine
 10
6.368591453
 20
5.0864175999
 30
0.0
 11
6.368591453
 21
5.0922744456
 31
0.0
  0
LINE
  5
20F
330
1F
100
AcDbEntity
  8
0
  6
Continuous
 62
     7
370
    30
100
AcDbLine
 10
6.368591453
 20
5.1216410264
 30
0.0
 11
6.368591453
 21
5.127497872
 31
0.0
  0
LINE
  5
210
330
1F
100
AcDbEntity
  8
0
  6
Continuous
 62
     7
370
    30
100
AcDbLine
 10
6.3482311282
 20
5.1040294965
 30
0.0
 11
6.3482311282
 21
5.1098859755
 31
0.0
  0
LINE
  5
211
330
1F
100
AcDbEntity
  8
0
  6
Continuous
 62
     7
370
    30
100
AcDbLine
 10
6.3482311282
 20
5.06880607
 30
0.0
 11
6.3482311282
 21
5.0746625491
 31
0.0
  0
LINE
  5
212
330
1F
100
AcDbEntity
  8
0
  6
Continuous
 62
     7
370
    30
100
AcDbLine
 10
6.3482311282
 20
5.0335826436
 30
0.0
 11
6.3482311282
 21
5.0394391226
 31
0.0
  0
LINE
  5
213
330
1F
100
AcDbEntity
  8
0
  6
Continuous
 62
     7
370
    30
100
AcDbLine
 10
4.9421921708
 20
5.1795557973
 30
0.0
 11
4.9421921708
 21
5.1811447656
 31
0.0
  0
ARC
  5
214
330
1F
100
AcDbEntity
  8
0
  6
Continuous
 62
     7
370
    30
100
AcDbCircle
 10
4.9001921908
 20
5.1051447719
 30
0.0
 40
0.0710000000000112
100
AcDbArc
 50
66.7301760415
 51
232.4184423813
  0
LINE
  5
215
330
1F
100
AcDbEntity
  8
0
  6
Continuous
 62
     7
370
    30
100
AcDbLine
 10
4.8646921995
 20
4.8681447748
 30
0.0
 11
4.8646921995
 21
5.0330285433
 31
0.0
  0
LINE
  5
216
330
1F
100
AcDbEntity
  8
0
  6
Continuous
 62
     7
370
    30
100
AcDbLine
 10
4.8646921995
 20
4.8681447748
 30
0.0
 11
4.5196921849
 21
4.8681447748
 31
0.0
  0
LINE
  5
217
330
1F
100
AcDbEntity
  8
0
  6
Continuous
 62
     7
370
    30
100
AcDbLine
 10
4.5196921849
 20
5.0330285433
 30
0.0
 11
4.5196921849
 21
4.8681447748
 31
0.0
  0
LINE
  5
218
330
1F
100
AcDbEntity
  8
0
  6
Continuous
 62
     7
370
    30
100
AcDbLine
 10
4.4421922136
 20
5.1811447656
 30
0.0
 11
4.4421922136
 21
5.1795557973
 31
0.0
  0
LINE
  5
219
330
1F
100
AcDbEntity
  8
0
  6
Continuous
 62
     7
370
    30
100
AcDbLine
 10
4.8801921937
 20
5.2431447427
 30
0.0
 11
4.7657619823
 21
5.2431447427
 31
0.0
  0
ARC
  5
21A
330
1F
100
AcDbEntity
  8
0
  6
Continuous
 62
     7
370
    30
100
AcDbCircle
 10
4.8801921908
 20
5.1811447719
 30
0.0
 40
0.0620000000000038
100
AcDbArc
 50
0.0
 51
90.0
  0
ARC
  5
21B
330
1F
100
AcDbEntity
  8
0
  6
Continuous
 62
     7
370
    30
100
AcDbCircle
 10
4.8446921908
 20
5.0330285463
 30
0.0
 40
0.0199999999999986
100
AcDbArc
 50
0.0
 51
52.4184423813
  0
ARC
  5
21C
330
1F
100
AcDbEntity
  8
0
  6
Continuous
 62
     7
370
    30
100
AcDbCircle
 10
4.9321921908
 20
5.1795557926
 30
0.0
 40
0.0099999999999901
100
AcDbArc
 50
246.7301760415
 51
360.0
  0
LINE
  5
21D
330
1F
100
AcDbEntity
  8
0
  6
Continuous
 62
     7
370
    30
100
AcDbLine
 10
4.7741922116
 20
4.928144755
 30
0.0
 11
4.6101921728
 21
4.928144755
 31
0.0
  0
LINE
  5
21E
330
1F
100
AcDbEntity
  8
0
  6
Continuous
 62
     7
370
    30
100
AcDbLine
 10
4.7657619823
 20
5.0376610298
 30
0.0
 11
4.7657619823
 21
5.0318042575
 31
0.0
  0
LINE
  5
21F
330
1F
100
AcDbEntity
  8
0
  6
Continuous
 62
     7
370
    30
100
AcDbLine
 10
4.7657619823
 20
5.0728844563
 30
0.0
 11
4.7657619823
 21
5.0670276839
 31
0.0
  0
LINE
  5
220
330
1F
100
AcDbEntity
  8
0
  6
Continuous
 62
     7
370
    30
100
AcDbLine
 10
4.7861223804
 20
5.1257194126
 30
0.0
 11
4.7861223804
 21
5.1198629336
 31
0.0
  0
LINE
  5
221
330
1F
100
AcDbEntity
  8
0
  6
Continuous
 62
     7
370
    30
100
AcDbLine
 10
4.7657619823
 20
5.1433313091
 30
0.0
 11
4.7657619823
 21
5.1374745368
 31
0.0
  0
LINE
  5
222
330
1F
100
AcDbEntity
  8
0
  6
Continuous
 62
     7
370
    30
100
AcDbLine
 10
4.7657619823
 20
5.1081078827
 30
0.0
 11
4.7657619823
 21
5.1022511103
 31
0.0
  0
LINE
  5
223
330
1F
100
AcDbEntity
  8
0
  6
Continuous
 62
     7
370
    30
100
AcDbLine
 10
4.7861223804
 20
5.15508636
 30
0.0
 11
4.7657619823
 21
5.1433313091
 31
0.0
  0
LINE
  5
224
330
1F
100
AcDbEntity
  8
0
  6
Continuous
 62
     7
370
    30
100
AcDbLine
 10
4.6185914558
 20
5.0218275927
 30
0.0
 11
4.598231131
 21
5.0335826436
 31
0.0
  0
LINE
  5
225
330
1F
100
AcDbEntity
  8
0
  6
Continuous
 62
     7
370
    30
100
AcDbLine
 10
4.6028323778
 20
4.9957026745
 30
0.0
 11
4.598231131
 21
4.9983592172
 31
0.0
  0
ARC
  5
226
330
1F
100
AcDbEntity
  8
0
  6
Continuous
 62
     7
370
    30
100
AcDbCircle
 10
4.5931592559
 20
4.9931667941
 30
0.0
 40
0.0100000000000089
100
AcDbArc
 50
336.1596651702
 51
14.6901250941
  0
LINE
  5
227
330
1F
100
AcDbEntity
  8
0
  6
Continuous
 62
     7
370
    30
100
AcDbLine
 10
4.598231131
 20
4.9983592172
 30
0.0
 11
4.598231131
 21
5.0042156962
 31
0.0
  0
LINE
  5
228
330
1F
100
AcDbEntity
  8
0
  6
Continuous
 62
     7
370
    30
100
AcDbLine
 10
4.7657611757
 20
5.0024371634
 30
0.0
 11
4.7657611757
 21
4.9965720312
 31
0.0
  0
LINE
  5
229
330
1F
100
AcDbEntity
  8
0
  6
Continuous
 62
     7
370
    30
100
AcDbLine
 10
4.7657619823
 20
5.0318042575
 30
0.0
 11
4.7861223804
 21
5.0200492066
 31
0.0
  0
LINE
  5
22A
330
1F
100
AcDbEntity
  8
0
  6
Continuous
 62
     7
370
    30
100
AcDbLine
 10
4.7861223804
 20
5.0200492066
 30
0.0
 11
4.7861223804
 21
5.0141926543
 31
0.0
  0
LINE
  5
22B
330
1F
100
AcDbEntity
  8
0
  6
Continuous
 62
     7
370
    30
100
AcDbLine
 10
4.7657619823
 20
5.0670276839
 30
0.0
 11
4.7861223804
 21
5.0552725597
 31
0.0
  0
LINE
  5
22C
330
1F
100
AcDbEntity
  8
0
  6
Continuous
 62
     7
370
    30
100
AcDbLine
 10
4.7861223804
 20
5.0552725597
 30
0.0
 11
4.7861223804
 21
5.0494160807
 31
0.0
  0
LINE
  5
22D
330
1F
100
AcDbEntity
  8
0
  6
Continuous
 62
     7
370
    30
100
AcDbLine
 10
4.7657619823
 20
5.1022511103
 30
0.0
 11
4.7861223804
 21
5.0904959861
 31
0.0
  0
LINE
  5
22E
330
1F
100
AcDbEntity
  8
0
  6
Continuous
 62
     7
370
    30
100
AcDbLine
 10
4.7861223804
 20
5.0904959861
 30
0.0
 11
4.7861223804
 21
5.0846395071
 31
0.0
  0
LINE
  5
22F
330
1F
100
AcDbEntity
  8
0
  6
Continuous
 62
     7
370
    30
100
AcDbLine
 10
4.7861223804
 20
5.160942839
 30
0.0
 11
4.7861223804
 21
5.15508636
 31
0.0
  0
LINE
  5
230
330
1F
100
AcDbEntity
  8
0
  6
Continuous
 62
     7
370
    30
100
AcDbLine
 10
4.7657619823
 20
5.1785547355
 30
0.0
 11
4.7657619823
 21
5.1726978899
 31
0.0
  0
LINE
  5
231
330
1F
100
AcDbEntity
  8
0
  6
Continuous
 62
     7
370
    30
100
AcDbLine
 10
4.7861223804
 20
5.1961662654
 30
0.0
 11
4.7861223804
 21
5.1903097864
 31
0.0
  0
LINE
  5
232
330
1F
100
AcDbEntity
  8
0
  6
Continuous
 62
     7
370
    30
100
AcDbLine
 10
4.7657619823
 20
5.213778162
 30
0.0
 11
4.7657619823
 21
5.2079213163
 31
0.0
  0
LINE
  5
233
330
1F
100
AcDbEntity
  8
0
  6
Continuous
 62
     7
370
    30
100
AcDbLine
 10
4.7861223804
 20
5.2313896919
 30
0.0
 11
4.7861223804
 21
5.2255332128
 31
0.0
  0
LINE
  5
234
330
1F
100
AcDbEntity
  8
0
  6
Continuous
 62
     7
370
    30
100
AcDbLine
 10
4.6013114621
 20
5.2431447427
 30
0.0
 11
4.5041921907
 21
5.2431447427
 31
0.0
  0
ARC
  5
235
330
1F
100
AcDbEntity
  8
0
  6
Continuous
 62
     7
370
    30
100
AcDbCircle
 10
4.5396921908
 20
5.0330285463
 30
0.0
 40
0.0200000000000005
100
AcDbArc
 50
127.5815576188
 51
180.0
  0
ARC
  5
236
330
1F
100
AcDbEntity
  8
0
  6
Continuous
 62
     7
370
    30
100
AcDbCircle
 10
4.4841921908
 20
5.1051447719
 30
0.0
 40
0.0710000000000088
100
AcDbArc
 50
307.5815576188
 51
113.2698239585
  0
ARC
  5
237
330
1F
100
AcDbEntity
  8
0
  6
Continuous
 62
     7
370
    30
100
AcDbCircle
 10
4.5041921908
 20
5.1811447719
 30
0.0
 40
0.0620000000000038
100
AcDbArc
 50
90.0
 51
180.0
  0
LINE
  5
238
330
1F
100
AcDbEntity
  8
0
  6
Continuous
 62
     7
370
    30
100
AcDbLine
 10
4.6185914558
 20
5.2273113056
 30
0.0
 11
4.6185914558
 21
5.2331681513
 31
0.0
  0
LINE
  5
239
330
1F
100
AcDbEntity
  8
0
  6
Continuous
 62
     7
370
    30
100
AcDbLine
 10
4.598231131
 20
5.2096997758
 30
0.0
 11
4.598231131
 21
5.2155562548
 31
0.0
  0
LINE
  5
23A
330
1F
100
AcDbEntity
  8
0
  6
Continuous
 62
     7
370
    30
100
AcDbLine
 10
4.6185914558
 20
5.1920878792
 30
0.0
 11
4.6185914558
 21
5.1979447249
 31
0.0
  0
LINE
  5
23B
330
1F
100
AcDbEntity
  8
0
  6
Continuous
 62
     7
370
    30
100
AcDbLine
 10
4.598231131
 20
5.1744763493
 30
0.0
 11
4.598231131
 21
5.1803328283
 31
0.0
  0
LINE
  5
23C
330
1F
100
AcDbEntity
  8
0
  6
Continuous
 62
     7
370
    30
100
AcDbLine
 10
4.6185914558
 20
5.1568644528
 30
0.0
 11
4.6185914558
 21
5.1627212985
 31
0.0
  0
LINE
  5
23D
330
1F
100
AcDbEntity
  8
0
  6
Continuous
 62
     7
370
    30
100
AcDbLine
 10
4.598231131
 20
5.1392529229
 30
0.0
 11
4.598231131
 21
5.1451094019
 31
0.0
  0
LINE
  5
23E
330
1F
100
AcDbEntity
  8
0
  6
Continuous
 62
     7
370
    30
100
AcDbLine
 10
4.6185914558
 20
5.1216410264
 30
0.0
 11
4.6185914558
 21
5.127497872
 31
0.0
  0
LINE
  5
23F
330
1F
100
AcDbEntity
  8
0
  6
Continuous
 62
     7
370
    30
100
AcDbLine
 10
4.598231131
 20
5.1040294965
 30
0.0
 11
4.598231131
 21
5.1098859755
 31
0.0
  0
LINE
  5
240
330
1F
100
AcDbEntity
  8
0
  6
Continuous
 62
     7
370
    30
100
AcDbLine
 10
4.6185914558
 20
5.0864175999
 30
0.0
 11
4.6185914558
 21
5.0922744456
 31
0.0
  0
LINE
  5
241
330
1F
100
AcDbEntity
  8
0
  6
Continuous
 62
     7
370
    30
100
AcDbLine
 10
4.598231131
 20
5.06880607
 30
0.0
 11
4.598231131
 21
5.0746625491
 31
0.0
  0
LINE
  5
242
330
1F
100
AcDbEntity
  8
0
  6
Continuous
 62
     7
370
    30
100
AcDbLine
 10
4.6185914558
 20
5.0511941735
 30
0.0
 11
4.6185914558
 21
5.0570510192
 31
0.0
  0
LINE
  5
243
330
1F
100
AcDbEntity
  8
0
  6
Continuous
 62
     7
370
    30
100
AcDbLine
 10
4.598231131
 20
5.0335826436
 30
0.0
 11
4.598231131
 21
5.0394391226
 31
0.0
  0
LINE
  5
244
330
1F
100
AcDbEntity
  8
0
  6
Continuous
 62
     7
370
    30
100
AcDbLine
 10
4.6185914558
 20
5.0159708204
 30
0.0
 11
4.6185914558
 21
5.0218275927
 31
0.0
  0
LINE
  5
245
330
1F
100
AcDbEntity
  8
0
  6
Continuous
 62
     7
370
    30
100
AcDbLine
 10
4.7657611757
 20
4.9965720312
 30
0.0
 11
4.7771362176
 21
4.990004667
 31
0.0
  0
LINE
  5
246
330
1F
100
AcDbEntity
  8
0
  6
Continuous
 62
     7
370
    30
100
AcDbLine
 10
4.7861223804
 20
5.0494160807
 30
0.0
 11
4.7657619823
 21
5.0376610298
 31
0.0
  0
LINE
  5
247
330
1F
100
AcDbEntity
  8
0
  6
Continuous
 62
     7
370
    30
100
AcDbLine
 10
4.7861223804
 20
5.0846395071
 30
0.0
 11
4.7657619823
 21
5.0728844563
 31
0.0
  0
LINE
  5
248
330
1F
100
AcDbEntity
  8
0
  6
Continuous
 62
     7
370
    30
100
AcDbLine
 10
4.7861223804
 20
5.1198629336
 30
0.0
 11
4.7657619823
 21
5.1081078827
 31
0.0
  0
LINE
  5
249
330
1F
100
AcDbEntity
  8
0
  6
Continuous
 62
     7
370
    30
100
AcDbLine
 10
4.7657619823
 20
5.1374745368
 30
0.0
 11
4.7861223804
 21
5.1257194126
 31
0.0
  0
LINE
  5
24A
330
1F
100
AcDbEntity
  8
0
  6
Continuous
 62
     7
370
    30
100
AcDbLine
 10
4.7657619823
 20
5.1726978899
 30
0.0
 11
4.7861223804
 21
5.160942839
 31
0.0
  0
LINE
  5
24B
330
1F
100
AcDbEntity
  8
0
  6
Continuous
 62
     7
370
    30
100
AcDbLine
 10
4.7861223804
 20
5.1903097864
 30
0.0
 11
4.7657619823
 21
5.1785547355
 31
0.0
  0
LINE
  5
24C
330
1F
100
AcDbEntity
  8
0
  6
Continuous
 62
     7
370
    30
100
AcDbLine
 10
4.7657619823
 20
5.2079213163
 30
0.0
 11
4.7861223804
 21
5.1961662654
 31
0.0
  0
LINE
  5
24D
330
1F
100
AcDbEntity
  8
0
  6
Continuous
 62
     7
370
    30
100
AcDbLine
 10
4.7861223804
 20
5.2255332128
 30
0.0
 11
4.7657619823
 21
5.213778162
 31
0.0
  0
LINE
  5
24E
330
1F
100
AcDbEntity
  8
0
  6
Continuous
 62
     7
370
    30
100
AcDbLine
 10
4.6185914558
 20
5.2331681513
 30
0.0
 11
4.6013114621
 21
5.2431447427
 31
0.0
  0
LINE
  5
24F
330
1F
100
AcDbEntity
  8
0
  6
Continuous
 62
     7
370
    30
100
AcDbLine
 10
4.598231131
 20
5.2155562548
 30
0.0
 11
4.6185914558
 21
5.2273113056
 31
0.0
  0
LINE
  5
250
330
1F
100
AcDbEntity
  8
0
  6
Continuous
 62
     7
370
    30
100
AcDbLine
 10
4.6185914558
 20
5.1979447249
 30
0.0
 11
4.598231131
 21
5.2096997758
 31
0.0
  0
LINE
  5
251
330
1F
100
AcDbEntity
  8
0
  6
Continuous
 62
     7
370
    30
100
AcDbLine
 10
4.598231131
 20
5.1803328283
 30
0.0
 11
4.6185914558
 21
5.1920878792
 31
0.0
  0
LINE
  5
252
330
1F
100
AcDbEntity
  8
0
  6
Continuous
 62
     7
370
    30
100
AcDbLine
 10
4.6185914558
 20
5.1627212985
 30
0.0
 11
4.598231131
 21
5.1744763493
 31
0.0
  0
LINE
  5
253
330
1F
100
AcDbEntity
  8
0
  6
Continuous
 62
     7
370
    30
100
AcDbLine
 10
4.598231131
 20
5.1451094019
 30
0.0
 11
4.6185914558
 21
5.1568644528
 31
0.0
  0
LINE
  5
254
330
1F
100
AcDbEntity
  8
0
  6
Continuous
 62
     7
370
    30
100
AcDbLine
 10
4.6185914558
 20
5.127497872
 30
0.0
 11
4.598231131
 21
5.1392529229
 31
0.0
  0
LINE
  5
255
330
1F
100
AcDbEntity
  8
0
  6
Continuous
 62
     7
370
    30
100
AcDbLine
 10
4.598231131
 20
5.1098859755
 30
0.0
 11
4.6185914558
 21
5.1216410264
 31
0.0
  0
LINE
  5
256
330
1F
100
AcDbEntity
  8
0
  6
Continuous
 62
     7
370
    30
100
AcDbLine
 10
4.6185914558
 20
5.0922744456
 30
0.0
 11
4.598231131
 21
5.1040294965
 31
0.0
  0
LINE
  5
257
330
1F
100
AcDbEntity
  8
0
  6
Continuous
 62
     7
370
    30
100
AcDbLine
 10
4.598231131
 20
5.0746625491
 30
0.0
 11
4.6185914558
 21
5.0864175999
 31
0.0
  0
LINE
  5
258
330
1F
100
AcDbEntity
  8
0
  6
Continuous
 62
     7
370
    30
100
AcDbLine
 10
4.6185914558
 20
5.0570510192
 30
0.0
 11
4.598231131
 21
5.06880607
 31
0.0
  0
LINE
  5
259
330
1F
100
AcDbEntity
  8
0
  6
Continuous
 62
     7
370
    30
100
AcDbLine
 10
4.598231131
 20
5.0394391226
 30
0.0
 11
4.6185914558
 21
5.0511941735
 31
0.0
  0
LINE
  5
25A
330
1F
100
AcDbEntity
  8
0
  6
Continuous
 62
     7
370
    30
100
AcDbLine
 10
4.598231131
 20
5.0042156962
 30
0.0
 11
4.6185914558
 21
5.0159708204
 31
0.0
  0
ARC
  5
25B
330
1F
100
AcDbEntity
  8
0
  6
Continuous
 62
     7
370
    30
100
AcDbCircle
 10
4.4521921908
 20
5.1795557926
 30
0.0
 40
0.0099999999999936
100
AcDbArc
 50
180.0
 51
293.2698239585
  0
ARC
  5
25C
330
1F
100
AcDbEntity
  8
0
  6
Continuous
 62
     7
370
    30
100
AcDbCircle
 10
4.6101921908
 20
4.9591447719
 30
0.0
 40
0.0309999999999998
100
AcDbArc
 50
104.7376174516
 51
270.0
  0
ARC
  5
25D
330
1F
100
AcDbEntity
  8
0
  6
Continuous
 62
     7
370
    30
100
AcDbCircle
 10
4.7741921908
 20
4.9591447719
 30
0.0
 40
0.0310000000000015
100
AcDbArc
 50
270.0
 51
84.5504773049
  0
LINE
  5
25E
330
1F
100
AcDbEntity
  8
0
  6
Continuous
 62
     7
370
    30
100
AcDbLine
 10
4.7861223804
 20
5.0141926543
 30
0.0
 11
4.7657611757
 21
5.0024371634
 31
0.0
  0
LINE
  5
25F
330
1F
100
AcDbEntity
  8
0
  6
Continuous
 62
     7
370
    30
100
AcDbLine
 10
4.7657619823
 20
5.2431447427
 30
0.0
 11
4.7861223804
 21
5.2313896919
 31
0.0
  0
LINE
  5
260
330
1F
100
AcDbEntity
  8
0
  6
Continuous
 62
     7
370
    30
100
AcDbLine
 10
2.8685916053
 20
5.0561447763
 30
0.0
 11
3.0341921989
 21
5.0561447763
 31
0.0
  0
LINE
  5
261
330
1F
100
AcDbEntity
  8
0
  6
Continuous
 62
     7
370
    30
100
AcDbLine
 10
4.6185914558
 20
5.0561447763
 30
0.0
 11
4.7841921961
 21
5.0561447763
 31
0.0
  0
LINE
  5
262
330
1F
100
AcDbEntity
  8
0
  6
Continuous
 62
     7
370
    30
100
AcDbLine
 10
8.1185915968
 20
5.0561447763
 30
0.0
 11
8.2841921904
 21
5.0561447763
 31
0.0
  0
LINE
  5
263
330
1F
100
AcDbEntity
  8
0
  6
Continuous
 62
     7
370
    30
100
AcDbLine
 10
6.368591453
 20
5.0561447763
 30
0.0
 11
6.5341921933
 21
5.0561447763
 31
0.0
  0
ARC
  5
264
330
1F
100
AcDbEntity
  8
0
  6
Continuous
 62
     7
370
    30
100
AcDbCircle
 10
3.692600608
 20
4.1181447719
 30
0.0
 40
0.0250000000000004
100
AcDbArc
 50
270.0
 51
21.86614513
  0
ARC
  5
265
330
1F
100
AcDbEntity
  8
0
  6
Continuous
 62
     7
370
    30
100
AcDbCircle
 10
3.8171921908
 20
4.1681447719
 30
0.0
 40
0.1092500000000004
100
AcDbArc
 50
193.0667292143
 51
201.86614513
  0
ARC
  5
266
330
1F
100
AcDbEntity
  8
0
  6
Continuous
 62
     7
370
    30
100
AcDbCircle
 10
3.735123641
 20
4.149097052
 30
0.0
 40
0.0250000000000009
100
AcDbArc
 50
13.0667292143
 51
193.0667292143
  0
ARC
  5
267
330
1F
100
AcDbEntity
  8
0
  6
Continuous
 62
     7
370
    30
100
AcDbCircle
 10
3.8171921908
 20
4.1681447719
 30
0.0
 40
0.0592500000000001
100
AcDbArc
 50
193.0667292143
 51
90.0
  0
LINE
  5
268
330
1F
100
AcDbEntity
  8
0
  6
Continuous
 62
     7
370
    30
100
AcDbLine
 10
3.7921921224
 20
4.2273947701
 30
0.0
 11
3.8171921936
 21
4.2273947701
 31
0.0
  0
LINE
  5
269
330
1F
100
AcDbEntity
  8
0
  6
Continuous
 62
     7
370
    30
100
AcDbLine
 10
3.7921921224
 20
5.1156569488
 30
0.0
 11
3.7921921224
 21
4.2273947701
 31
0.0
  0
ARC
  5
26A
330
1F
100
AcDbEntity
  8
0
  6
Continuous
 62
     7
370
    30
100
AcDbCircle
 10
3.7171921908
 20
5.1156569373
 30
0.0
 40
0.0750000000000002
100
AcDbArc
 50
0.0
 51
83.3002348222
  0
ARC
  5
26B
330
1F
100
AcDbEntity
  8
0
  6
Continuous
 62
     7
370
    30
100
AcDbCircle
 10
3.7311921908
 20
5.2348374726
 30
0.0
 40
0.0450000000000004
100
AcDbArc
 50
180.0
 51
263.3002348222
  0
LINE
  5
26C
330
1F
100
AcDbEntity
  8
0
  6
Continuous
 62
     7
370
    30
100
AcDbLine
 10
3.6861922136
 20
5.3101447487
 30
0.0
 11
3.6861922136
 21
5.234837492
 31
0.0
  0
ARC
  5
26D
330
1F
100
AcDbEntity
  8
0
  6
Continuous
 62
     7
370
    30
100
AcDbCircle
 10
3.6961921908
 20
5.3101447719
 30
0.0
 40
0.0099999999999998
100
AcDbArc
 50
90.0
 51
180.0
  0
LINE
  5
26E
330
1F
100
AcDbEntity
  8
0
  6
Continuous
 62
     7
370
    30
100
AcDbLine
 10
3.7026282237
 20
5.3201448066
 30
0.0
 11
3.6961921247
 21
5.3201448066
 31
0.0
  0
LINE
  5
26F
330
1F
100
AcDbEntity
  8
0
  6
Continuous
 62
     7
370
    30
100
AcDbLine
 10
3.7361922093
 20
5.280144722
 30
0.0
 11
3.7026282237
 21
5.3201448066
 31
0.0
  0
LINE
  5
270
330
1F
100
AcDbEntity
  8
0
  6
Continuous
 62
     7
370
    30
100
AcDbLine
 10
3.7273758845
 20
5.2301447996
 30
0.0
 11
3.7361922093
 21
5.280144722
 31
0.0
  0
LINE
  5
271
330
1F
100
AcDbEntity
  8
0
  6
Continuous
 62
     7
370
    30
100
AcDbLine
 10
3.7921921224
 20
5.2301447996
 30
0.0
 11
3.7273758845
 21
5.2301447996
 31
0.0
  0
LINE
  5
272
330
1F
100
AcDbEntity
  8
0
  6
Continuous
 62
     7
370
    30
100
AcDbLine
 10
3.7921921224
 20
5.8551447462
 30
0.0
 11
3.7921921224
 21
5.2301447996
 31
0.0
  0
LINE
  5
273
330
1F
100
AcDbEntity
  8
0
  6
Continuous
 62
     7
370
    30
100
AcDbLine
 10
3.7921921224
 20
5.8551447462
 30
0.0
 11
3.8421921181
 21
5.8551447462
 31
0.0
  0
LINE
  5
274
330
1F
100
AcDbEntity
  8
0
  6
Continuous
 62
     7
370
    30
100
AcDbLine
 10
3.9070085027
 20
5.2301447996
 30
0.0
 11
3.8421921181
 21
5.2301447996
 31
0.0
  0
LINE
  5
275
330
1F
100
AcDbEntity
  8
0
  6
Continuous
 62
     7
370
    30
100
AcDbLine
 10
3.8981921779
 20
5.280144722
 30
0.0
 11
3.9070085027
 21
5.2301447996
 31
0.0
  0
LINE
  5
276
330
1F
100
AcDbEntity
  8
0
  6
Continuous
 62
     7
370
    30
100
AcDbLine
 10
3.9317561635
 20
5.3201448066
 30
0.0
 11
3.8981921779
 21
5.280144722
 31
0.0
  0
LINE
  5
277
330
1F
100
AcDbEntity
  8
0
  6
Continuous
 62
     7
370
    30
100
AcDbLine
 10
3.9381922625
 20
5.3201448066
 30
0.0
 11
3.9317561635
 21
5.3201448066
 31
0.0
  0
ARC
  5
278
330
1F
100
AcDbEntity
  8
0
  6
Continuous
 62
     7
370
    30
100
AcDbCircle
 10
3.9381921908
 20
5.3101447719
 30
0.0
 40
0.0100000000000002
100
AcDbArc
 50
0.0
 51
90.0
  0
LINE
  5
279
330
1F
100
AcDbEntity
  8
0
  6
Continuous
 62
     7
370
    30
100
AcDbLine
 10
3.9481921736
 20
5.234837492
 30
0.0
 11
3.9481921736
 21
5.3101447487
 31
0.0
  0
ARC
  5
27A
330
1F
100
AcDbEntity
  8
0
  6
Continuous
 62
     7
370
    30
100
AcDbCircle
 10
3.9031921908
 20
5.2348374726
 30
0.0
 40
0.0450000000000004
100
AcDbArc
 50
276.6997651778
 51
0.0
  0
ARC
  5
27B
330
1F
100
AcDbEntity
  8
0
  6
Continuous
 62
     7
370
    30
100
AcDbCircle
 10
3.9171921908
 20
5.1156569373
 30
0.0
 40
0.0750000000000002
100
AcDbArc
 50
96.6997651778
 51
180.0
  0
LINE
  5
27C
330
1F
100
AcDbEntity
  8
0
  6
Continuous
 62
     7
370
    30
100
AcDbLine
 10
3.8421921181
 20
4.274495896
 30
0.0
 11
3.8421921181
 21
5.1156569488
 31
0.0
  0
ARC
  5
27D
330
1F
100
AcDbEntity
  8
0
  6
Continuous
 62
     7
370
    30
100
AcDbCircle
 10
3.8171921908
 20
4.1681447719
 30
0.0
 40
0.1092500000000006
100
AcDbArc
 50
338.13385487
 51
76.7716275079
  0
ARC
  5
27E
330
1F
100
AcDbEntity
  8
0
  6
Continuous
 62
     7
370
    30
100
AcDbCircle
 10
3.9417837736
 20
4.1181447719
 30
0.0
 40
0.0250000000000004
100
AcDbArc
 50
158.13385487
 51
270.0
  0
LINE
  5
27F
330
1F
100
AcDbEntity
  8
0
  6
Continuous
 62
     7
370
    30
100
AcDbLine
 10
4.1921922349
 20
4.0931447722
 30
0.0
 11
3.9417837943
 21
4.0931447722
 31
0.0
  0
LINE
  5
280
330
1F
100
AcDbEntity
  8
0
  6
Continuous
 62
     7
370
    30
100
AcDbLine
 10
4.1921922349
 20
4.0431447719
 30
0.0
 11
4.1921922349
 21
4.0931447722
 31
0.0
  0
LINE
  5
281
330
1F
100
AcDbEntity
  8
0
  6
Continuous
 62
     7
370
    30
100
AcDbLine
 10
3.4421921523
 20
4.0431447719
 30
0.0
 11
4.1921922349
 21
4.0431447719
 31
0.0
  0
LINE
  5
282
330
1F
100
AcDbEntity
  8
0
  6
Continuous
 62
     7
370
    30
100
AcDbLine
 10
3.6926005929
 20
4.0931447722
 30
0.0
 11
3.4421921523
 21
4.0931447722
 31
0.0
  0
LINE
  5
283
330
1F
100
AcDbEntity
  8
0
  6
Continuous
 62
     7
370
    30
100
AcDbLine
 10
3.4421921523
 20
4.0431447719
 30
0.0
 11
3.4421921523
 21
4.0931447722
 31
0.0
  0
LINE
  5
284
330
1F
100
AcDbEntity
  8
0
  6
Continuous
 62
     7
370
    30
100
AcDbLine
 10
3.8421921181
 20
5.2301447996
 30
0.0
 11
3.8421921181
 21
5.8551447462
 31
0.0
  0
LINE
  5
285
330
1F
100
AcDbEntity
  8
0
  6
Continuous
 62
     7
370
    30
100
AcDbLine
 10
5.1921921862
 20
4.0431447719
 30
0.0
 11
5.1921921862
 21
4.0931447722
 31
0.0
  0
ARC
  5
286
330
1F
100
AcDbEntity
  8
0
  6
Continuous
 62
     7
370
    30
100
AcDbCircle
 10
5.442600608
 20
4.1181447719
 30
0.0
 40
0.0250000000000006
100
AcDbArc
 50
270.0
 51
21.86614513
  0
ARC
  5
287
330
1F
100
AcDbEntity
  8
0
  6
Continuous
 62
     7
370
    30
100
AcDbCircle
 10
5.5671921908
 20
4.1681447719
 30
0.0
 40
0.1092500000000008
100
AcDbArc
 50
193.0667292143
 51
201.86614513
  0
ARC
  5
288
330
1F
100
AcDbEntity
  8
0
  6
Continuous
 62
     7
370
    30
100
AcDbCircle
 10
5.485123641
 20
4.149097052
 30
0.0
 40
0.0250000000000004
100
AcDbArc
 50
13.0667292143
 51
193.0667292143
  0
ARC
  5
289
330
1F
100
AcDbEntity
  8
0
  6
Continuous
 62
     7
370
    30
100
AcDbCircle
 10
5.5671921908
 20
4.1681447719
 30
0.0
 40
0.059250000000001
100
AcDbArc
 50
193.0667292143
 51
90.0
  0
LINE
  5
28A
330
1F
100
AcDbEntity
  8
0
  6
Continuous
 62
     7
370
    30
100
AcDbLine
 10
5.5421921906
 20
4.2273947701
 30
0.0
 11
5.5671921908
 21
4.2273947701
 31
0.0
  0
LINE
  5
28B
330
1F
100
AcDbEntity
  8
0
  6
Continuous
 62
     7
370
    30
100
AcDbLine
 10
5.5421921906
 20
5.1156569488
 30
0.0
 11
5.5421921906
 21
4.2273947701
 31
0.0
  0
ARC
  5
28C
330
1F
100
AcDbEntity
  8
0
  6
Continuous
 62
     7
370
    30
100
AcDbCircle
 10
5.4671921908
 20
5.1156569373
 30
0.0
 40
0.0749999999999993
100
AcDbArc
 50
0.0
 51
83.3002348222
  0
ARC
  5
28D
330
1F
100
AcDbEntity
  8
0
  6
Continuous
 62
     7
370
    30
100
AcDbCircle
 10
5.4811921908
 20
5.2348374726
 30
0.0
 40
0.0450000000000008
100
AcDbArc
 50
180.0
 51
263.3002348222
  0
LINE
  5
28E
330
1F
100
AcDbEntity
  8
0
  6
Continuous
 62
     7
370
    30
100
AcDbLine
 10
5.4361921924
 20
5.3101447487
 30
0.0
 11
5.4361921924
 21
5.234837492
 31
0.0
  0
ARC
  5
28F
330
1F
100
AcDbEntity
  8
0
  6
Continuous
 62
     7
370
    30
100
AcDbCircle
 10
5.4461921908
 20
5.3101447719
 30
0.0
 40
0.0100000000000007
100
AcDbArc
 50
90.0
 51
180.0
  0
LINE
  5
290
330
1F
100
AcDbEntity
  8
0
  6
Continuous
 62
     7
370
    30
100
AcDbLine
 10
5.4526282026
 20
5.3201448066
 30
0.0
 11
5.4461921953
 21
5.3201448066
 31
0.0
  0
LINE
  5
291
330
1F
100
AcDbEntity
  8
0
  6
Continuous
 62
     7
370
    30
100
AcDbLine
 10
5.4861921882
 20
5.280144722
 30
0.0
 11
5.4526282026
 21
5.3201448066
 31
0.0
  0
LINE
  5
292
330
1F
100
AcDbEntity
  8
0
  6
Continuous
 62
     7
370
    30
100
AcDbLine
 10
5.477375845
 20
5.2301447996
 30
0.0
 11
5.4861921882
 21
5.280144722
 31
0.0
  0
LINE
  5
293
330
1F
100
AcDbEntity
  8
0
  6
Continuous
 62
     7
370
    30
100
AcDbLine
 10
5.5421921906
 20
5.2301447996
 30
0.0
 11
5.477375845
 21
5.2301447996
 31
0.0
  0
LINE
  5
294
330
1F
100
AcDbEntity
  8
0
  6
Continuous
 62
     7
370
    30
100
AcDbLine
 10
5.5421921906
 20
5.8551447462
 30
0.0
 11
5.5421921906
 21
5.2301447996
 31
0.0
  0
LINE
  5
295
330
1F
100
AcDbEntity
  8
0
  6
Continuous
 62
     7
370
    30
100
AcDbLine
 10
5.5421921906
 20
5.8551447462
 30
0.0
 11
5.5921921909
 21
5.8551447462
 31
0.0
  0
LINE
  5
296
330
1F
100
AcDbEntity
  8
0
  6
Continuous
 62
     7
370
    30
100
AcDbLine
 10
5.5921921909
 20
5.2301447996
 30
0.0
 11
5.5921921909
 21
5.8551447462
 31
0.0
  0
LINE
  5
297
330
1F
100
AcDbEntity
  8
0
  6
Continuous
 62
     7
370
    30
100
AcDbLine
 10
5.6570085366
 20
5.2301447996
 30
0.0
 11
5.5921921909
 21
5.2301447996
 31
0.0
  0
LINE
  5
298
330
1F
100
AcDbEntity
  8
0
  6
Continuous
 62
     7
370
    30
100
AcDbLine
 10
5.6481921934
 20
5.280144722
 30
0.0
 11
5.6570085366
 21
5.2301447996
 31
0.0
  0
LINE
  5
299
330
1F
100
AcDbEntity
  8
0
  6
Continuous
 62
     7
370
    30
100
AcDbLine
 10
5.681756179
 20
5.3201448066
 30
0.0
 11
5.6481921934
 21
5.280144722
 31
0.0
  0
LINE
  5
29A
330
1F
100
AcDbEntity
  8
0
  6
Continuous
 62
     7
370
    30
100
AcDbLine
 10
5.6881921863
 20
5.3201448066
 30
0.0
 11
5.681756179
 21
5.3201448066
 31
0.0
  0
ARC
  5
29B
330
1F
100
AcDbEntity
  8
0
  6
Continuous
 62
     7
370
    30
100
AcDbCircle
 10
5.6881921908
 20
5.3101447719
 30
0.0
 40
0.0100000000000007
100
AcDbArc
 50
0.0
 51
90.0
  0
LINE
  5
29C
330
1F
100
AcDbEntity
  8
0
  6
Continuous
 62
     7
370
    30
100
AcDbLine
 10
5.6981921891
 20
5.234837492
 30
0.0
 11
5.6981921891
 21
5.3101447487
 31
0.0
  0
ARC
  5
29D
330
1F
100
AcDbEntity
  8
0
  6
Continuous
 62
     7
370
    30
100
AcDbCircle
 10
5.6531921908
 20
5.2348374726
 30
0.0
 40
0.0450000000000008
100
AcDbArc
 50
276.6997651778
 51
0.0
  0
ARC
  5
29E
330
1F
100
AcDbEntity
  8
0
  6
Continuous
 62
     7
370
    30
100
AcDbCircle
 10
5.6671921908
 20
5.1156569373
 30
0.0
 40
0.0750000000000011
100
AcDbArc
 50
96.6997651778
 51
180.0
  0
LINE
  5
29F
330
1F
100
AcDbEntity
  8
0
  6
Continuous
 62
     7
370
    30
100
AcDbLine
 10
5.5921921909
 20
4.274495896
 30
0.0
 11
5.5921921909
 21
5.1156569488
 31
0.0
  0
ARC
  5
2A0
330
1F
100
AcDbEntity
  8
0
  6
Continuous
 62
     7
370
    30
100
AcDbCircle
 10
5.5671921908
 20
4.1681447719
 30
0.0
 40
0.1092499999999998
100
AcDbArc
 50
338.13385487
 51
76.7716275079
  0
ARC
  5
2A1
330
1F
100
AcDbEntity
  8
0
  6
Continuous
 62
     7
370
    30
100
AcDbCircle
 10
5.6917837736
 20
4.1181447719
 30
0.0
 40
0.0249999999999998
100
AcDbArc
 50
158.13385487
 51
270.0
  0
LINE
  5
2A2
330
1F
100
AcDbEntity
  8
0
  6
Continuous
 62
     7
370
    30
100
AcDbLine
 10
5.9421921954
 20
4.0931447722
 30
0.0
 11
5.6917837732
 21
4.0931447722
 31
0.0
  0
LINE
  5
2A3
330
1F
100
AcDbEntity
  8
0
  6
Continuous
 62
     7
370
    30
100
AcDbLine
 10
5.9421921954
 20
4.0431447719
 30
0.0
 11
5.9421921954
 21
4.0931447722
 31
0.0
  0
LINE
  5
2A4
330
1F
100
AcDbEntity
  8
0
  6
Continuous
 62
     7
370
    30
100
AcDbLine
 10
5.1921921862
 20
4.0431447719
 30
0.0
 11
5.9421921954
 21
4.0431447719
 31
0.0
  0
LINE
  5
2A5
330
1F
100
AcDbEntity
  8
0
  6
Continuous
 62
     7
370
    30
100
AcDbLine
 10
5.4426006084
 20
4.0931447722
 30
0.0
 11
5.1921921862
 21
4.0931447722
 31
0.0
  0
ARC
  5
2A6
330
1F
100
AcDbEntity
  8
0
  6
Continuous
 62
     7
370
    30
100
AcDbCircle
 10
7.192600608
 20
4.1181447719
 30
0.0
 40
0.0249999999999995
100
AcDbArc
 50
270.0
 51
21.86614513
  0
ARC
  5
2A7
330
1F
100
AcDbEntity
  8
0
  6
Continuous
 62
     7
370
    30
100
AcDbCircle
 10
7.3171921908
 20
4.1681447719
 30
0.0
 40
0.1092500000000006
100
AcDbArc
 50
193.0667292143
 51
201.86614513
  0
ARC
  5
2A8
330
1F
100
AcDbEntity
  8
0
  6
Continuous
 62
     7
370
    30
100
AcDbCircle
 10
7.235123641
 20
4.149097052
 30
0.0
 40
0.0250000000000011
100
AcDbArc
 50
13.0667292143
 51
193.0667292143
  0
ARC
  5
2A9
330
1F
100
AcDbEntity
  8
0
  6
Continuous
 62
     7
370
    30
100
AcDbCircle
 10
7.3171921908
 20
4.1681447719
 30
0.0
 40
0.0592499999999996
100
AcDbArc
 50
193.0667292143
 51
90.0
  0
LINE
  5
2AA
330
1F
100
AcDbEntity
  8
0
  6
Continuous
 62
     7
370
    30
100
AcDbLine
 10
7.2921922634
 20
4.2273947701
 30
0.0
 11
7.317192188
 21
4.2273947701
 31
0.0
  0
LINE
  5
2AB
330
1F
100
AcDbEntity
  8
0
  6
Continuous
 62
     7
370
    30
100
AcDbLine
 10
7.2921922634
 20
5.1156569488
 30
0.0
 11
7.2921922634
 21
4.2273947701
 31
0.0
  0
ARC
  5
2AC
330
1F
100
AcDbEntity
  8
0
  6
Continuous
 62
     7
370
    30
100
AcDbCircle
 10
7.2171921908
 20
5.1156569373
 30
0.0
 40
0.0749999999999993
100
AcDbArc
 50
0.0
 51
83.3002348222
  0
ARC
  5
2AD
330
1F
100
AcDbEntity
  8
0
  6
Continuous
 62
     7
370
    30
100
AcDbCircle
 10
7.2311921908
 20
5.2348374726
 30
0.0
 40
0.0450000000000004
100
AcDbArc
 50
180.0
 51
263.3002348222
  0
LINE
  5
2AE
330
1F
100
AcDbEntity
  8
0
  6
Continuous
 62
     7
370
    30
100
AcDbLine
 10
7.186192208
 20
5.3101447487
 30
0.0
 11
7.186192208
 21
5.234837492
 31
0.0
  0
ARC
  5
2AF
330
1F
100
AcDbEntity
  8
0
  6
Continuous
 62
     7
370
    30
100
AcDbCircle
 10
7.1961921908
 20
5.3101447719
 30
0.0
 40
0.0099999999999998
100
AcDbArc
 50
90.0
 51
180.0
  0
LINE
  5
2B0
330
1F
100
AcDbEntity
  8
0
  6
Continuous
 62
     7
370
    30
100
AcDbLine
 10
7.2026282181
 20
5.3201448066
 30
0.0
 11
7.1961921191
 21
5.3201448066
 31
0.0
  0
LINE
  5
2B1
330
1F
100
AcDbEntity
  8
0
  6
Continuous
 62
     7
370
    30
100
AcDbLine
 10
7.2361922037
 20
5.280144722
 30
0.0
 11
7.2026282181
 21
5.3201448066
 31
0.0
  0
LINE
  5
2B2
330
1F
100
AcDbEntity
  8
0
  6
Continuous
 62
     7
370
    30
100
AcDbLine
 10
7.2273758789
 20
5.2301447996
 30
0.0
 11
7.2361922037
 21
5.280144722
 31
0.0
  0
LINE
  5
2B3
330
1F
100
AcDbEntity
  8
0
  6
Continuous
 62
     7
370
    30
100
AcDbLine
 10
7.2921922634
 20
5.2301447996
 30
0.0
 11
7.2273758789
 21
5.2301447996
 31
0.0
  0
LINE
  5
2B4
330
1F
100
AcDbEntity
  8
0
  6
Continuous
 62
     7
370
    30
100
AcDbLine
 10
7.4070084971
 20
5.2301447996
 30
0.0
 11
7.3421922592
 21
5.2301447996
 31
0.0
  0
LINE
  5
2B5
330
1F
100
AcDbEntity
  8
0
  6
Continuous
 62
     7
370
    30
100
AcDbLine
 10
7.3981921723
 20
5.280144722
 30
0.0
 11
7.4070084971
 21
5.2301447996
 31
0.0
  0
LINE
  5
2B6
330
1F
100
AcDbEntity
  8
0
  6
Continuous
 62
     7
370
    30
100
AcDbLine
 10
7.4317561579
 20
5.3201448066
 30
0.0
 11
7.3981921723
 21
5.280144722
 31
0.0
  0
LINE
  5
2B7
330
1F
100
AcDbEntity
  8
0
  6
Continuous
 62
     7
370
    30
100
AcDbLine
 10
7.4381922568
 20
5.3201448066
 30
0.0
 11
7.4317561579
 21
5.3201448066
 31
0.0
  0
ARC
  5
2B8
330
1F
100
AcDbEntity
  8
0
  6
Continuous
 62
     7
370
    30
100
AcDbCircle
 10
7.4381921908
 20
5.3101447719
 30
0.0
 40
0.0099999999999998
100
AcDbArc
 50
0.0
 51
90.0
  0
LINE
  5
2B9
330
1F
100
AcDbEntity
  8
0
  6
Continuous
 62
     7
370
    30
100
AcDbLine
 10
7.448192168
 20
5.234837492
 30
0.0
 11
7.448192168
 21
5.3101447487
 31
0.0
  0
ARC
  5
2BA
330
1F
100
AcDbEntity
  8
0
  6
Continuous
 62
     7
370
    30
100
AcDbCircle
 10
7.4031921908
 20
5.2348374726
 30
0.0
 40
0.0450000000000003
100
AcDbArc
 50
276.6997651778
 51
0.0
  0
ARC
  5
2BB
330
1F
100
AcDbEntity
  8
0
  6
Continuous
 62
     7
370
    30
100
AcDbCircle
 10
7.4171921908
 20
5.1156569373
 30
0.0
 40
0.0749999999999993
100
AcDbArc
 50
96.6997651778
 51
180.0
  0
LINE
  5
2BC
330
1F
100
AcDbEntity
  8
0
  6
Continuous
 62
     7
370
    30
100
AcDbLine
 10
7.3421922592
 20
4.274495896
 30
0.0
 11
7.3421922592
 21
5.1156569488
 31
0.0
  0
ARC
  5
2BD
330
1F
100
AcDbEntity
  8
0
  6
Continuous
 62
     7
370
    30
100
AcDbCircle
 10
7.3171921908
 20
4.1681447719
 30
0.0
 40
0.1092500000000006
100
AcDbArc
 50
338.13385487
 51
76.7716275079
  0
ARC
  5
2BE
330
1F
100
AcDbEntity
  8
0
  6
Continuous
 62
     7
370
    30
100
AcDbCircle
 10
7.4417837736
 20
4.1181447719
 30
0.0
 40
0.0249999999999998
100
AcDbArc
 50
158.13385487
 51
270.0
  0
LINE
  5
2BF
330
1F
100
AcDbEntity
  8
0
  6
Continuous
 62
     7
370
    30
100
AcDbLine
 10
7.6921922293
 20
4.0931447722
 30
0.0
 11
7.4417837887
 21
4.0931447722
 31
0.0
  0
LINE
  5
2C0
330
1F
100
AcDbEntity
  8
0
  6
Continuous
 62
     7
370
    30
100
AcDbLine
 10
7.2921922634
 20
5.8551447462
 30
0.0
 11
7.2921922634
 21
5.2301447996
 31
0.0
  0
LINE
  5
2C1
330
1F
100
AcDbEntity
  8
0
  6
Continuous
 62
     7
370
    30
100
AcDbLine
 10
7.2921922634
 20
5.8551447462
 30
0.0
 11
7.3421922592
 21
5.8551447462
 31
0.0
  0
LINE
  5
2C2
330
1F
100
AcDbEntity
  8
0
  6
Continuous
 62
     7
370
    30
100
AcDbLine
 10
6.9421921467
 20
4.0431447719
 30
0.0
 11
6.9421921467
 21
4.0931447722
 31
0.0
  0
LINE
  5
2C3
330
1F
100
AcDbEntity
  8
0
  6
Continuous
 62
     7
370
    30
100
AcDbLine
 10
6.9421921467
 20
4.0431447719
 30
0.0
 11
7.6921922293
 21
4.0431447719
 31
0.0
  0
LINE
  5
2C4
330
1F
100
AcDbEntity
  8
0
  6
Continuous
 62
     7
370
    30
100
AcDbLine
 10
7.6921922293
 20
4.0431447719
 30
0.0
 11
7.6921922293
 21
4.0931447722
 31
0.0
  0
LINE
  5
2C5
330
1F
100
AcDbEntity
  8
0
  6
Continuous
 62
     7
370
    30
100
AcDbLine
 10
7.1926005873
 20
4.0931447722
 30
0.0
 11
6.9421921467
 21
4.0931447722
 31
0.0
  0
LINE
  5
2C6
330
1F
100
AcDbEntity
  8
0
  6
Continuous
 62
     7
370
    30
100
AcDbLine
 10
7.3421922592
 20
5.2301447996
 30
0.0
 11
7.3421922592
 21
5.8551447462
 31
0.0
  0
LINE
  5
2C7
330
1F
100
AcDbEntity
  8
0
  6
Continuous
 62
     7
370
    30
100
AcDbLine
 10
10.302395196
 20
4.0529444441
 30
0.0
 11
8.7221921706
 21
4.0315509253
 31
0.0
  0
LINE
  5
2C8
330
1F
100
AcDbEntity
  8
0
  6
Continuous
 62
     7
370
    30
100
AcDbLine
 10
8.7221921706
 20
4.0315509253
 30
0.0
 11
8.7221921706
 21
4.0251447723
 31
0.0
  0
ARC
  5
2C9
330
1F
100
AcDbEntity
  8
0
  6
Continuous
 62
     7
370
    30
100
AcDbCircle
 10
8.6971921908
 20
4.0051447719
 30
0.0
 40
0.0050000000000008
100
AcDbArc
 50
179.9999999999
 51
270.0
  0
LINE
  5
2CA
330
1F
100
AcDbEntity
  8
0
  6
Continuous
 62
     7
370
    30
100
AcDbLine
 10
8.6921921439
 20
4.0781447726
 30
0.0
 11
8.6921921439
 21
4.0051447713
 31
0.0
  0
ARC
  5
2CB
330
1F
100
AcDbEntity
  8
0
  6
Continuous
 62
     7
370
    30
100
AcDbCircle
 10
8.7071921908
 20
4.0781447719
 30
0.0
 40
0.0149999999999997
100
AcDbArc
 50
90.0
 51
180.0
  0
LINE
  5
2CC
330
1F
100
AcDbEntity
  8
0
  6
Continuous
 62
     7
370
    30
100
AcDbLine
 10
8.7071921572
 20
4.0931447722
 30
0.0
 11
9.0271922472
 21
4.0931447722
 31
0.0
  0
ARC
  5
2CD
330
1F
100
AcDbEntity
  8
0
  6
Continuous
 62
     7
370
    30
100
AcDbCircle
 10
9.0271921908
 20
4.1081447719
 30
0.0
 40
0.0150000000000006
100
AcDbArc
 50
270.0
 51
0.0
  0
LINE
  5
2CE
330
1F
100
AcDbEntity
  8
0
  6
Continuous
 62
     7
370
    30
100
AcDbLine
 10
9.0421922606
 20
4.1081447718
 30
0.0
 11
9.0421922606
 21
5.1156569488
 31
0.0
  0
ARC
  5
2CF
330
1F
100
AcDbEntity
  8
0
  6
Continuous
 62
     7
370
    30
100
AcDbCircle
 10
8.9671921908
 20
5.1156569373
 30
0.0
 40
0.075
100
AcDbArc
 50
0.0
 51
83.3002348222
  0
ARC
  5
2D0
330
1F
100
AcDbEntity
  8
0
  6
Continuous
 62
     7
370
    30
100
AcDbCircle
 10
8.9811921908
 20
5.2348374726
 30
0.0
 40
0.0449999999999985
100
AcDbArc
 50
180.0
 51
263.3002348222
  0
LINE
  5
2D1
330
1F
100
AcDbEntity
  8
0
  6
Continuous
 62
     7
370
    30
100
AcDbLine
 10
8.9361922051
 20
5.234837492
 30
0.0
 11
8.9361922051
 21
5.3101447487
 31
0.0
  0
ARC
  5
2D2
330
1F
100
AcDbEntity
  8
0
  6
Continuous
 62
     7
370
    30
100
AcDbCircle
 10
8.9461921908
 20
5.3101447719
 30
0.0
 40
0.0099999999999998
100
AcDbArc
 50
90.0
 51
180.0
  0
LINE
  5
2D3
330
1F
100
AcDbEntity
  8
0
  6
Continuous
 62
     7
370
    30
100
AcDbLine
 10
8.9461921163
 20
5.3201448066
 30
0.0
 11
8.9526280686
 21
5.3201448066
 31
0.0
  0
LINE
  5
2D4
330
1F
100
AcDbEntity
  8
0
  6
Continuous
 62
     7
370
    30
100
AcDbLine
 10
8.9526280686
 20
5.3201448066
 30
0.0
 11
8.9861920542
 21
5.280144722
 31
0.0
  0
LINE
  5
2D5
330
1F
100
AcDbEntity
  8
0
  6
Continuous
 62
     7
370
    30
100
AcDbLine
 10
8.9861920542
 20
5.280144722
 30
0.0
 11
8.9804800402
 21
5.2477495095
 31
0.0
  0
ARC
  5
2D6
330
1F
100
AcDbEntity
  8
0
  6
Continuous
 62
     7
370
    30
100
AcDbCircle
 10
8.9952521456
 20
5.2451447719
 30
0.0
 40
0.0149999999999997
100
AcDbArc
 50
170.0
 51
270.0
  0
LINE
  5
2D7
330
1F
100
AcDbEntity
  8
0
  6
Continuous
 62
     7
370
    30
100
AcDbLine
 10
8.9952521362
 20
5.2301447996
 30
0.0
 11
9.0271922472
 21
5.2301447996
 31
0.0
  0
ARC
  5
2D8
330
1F
100
AcDbEntity
  8
0
  6
Continuous
 62
     7
370
    30
100
AcDbCircle
 10
9.0271921908
 20
5.2451447719
 30
0.0
 40
0.0150000000000006
100
AcDbArc
 50
270.0
 51
0.0
  0
LINE
  5
2D9
330
1F
100
AcDbEntity
  8
0
  6
Continuous
 62
     7
370
    30
100
AcDbLine
 10
9.0421922606
 20
5.2451447396
 30
0.0
 11
9.0421922606
 21
5.845144835
 31
0.0
  0
ARC
  5
2DA
330
1F
100
AcDbEntity
  8
0
  6
Continuous
 62
     7
370
    30
100
AcDbCircle
 10
9.0521921908
 20
5.8451447719
 30
0.0
 40
0.0100000000000007
100
AcDbArc
 50
90.0
 51
180.0
  0
LINE
  5
2DB
330
1F
100
AcDbEntity
  8
0
  6
Continuous
 62
     7
370
    30
100
AcDbLine
 10
9.0521921718
 20
5.8551447462
 30
0.0
 11
9.0821921985
 21
5.8551447462
 31
0.0
  0
ARC
  5
2DC
330
1F
100
AcDbEntity
  8
0
  6
Continuous
 62
     7
370
    30
100
AcDbCircle
 10
9.0821921908
 20
5.8451447719
 30
0.0
 40
0.0100000000000007
100
AcDbArc
 50
0.0
 51
90.0
  0
LINE
  5
2DD
330
1F
100
AcDbEntity
  8
0
  6
Continuous
 62
     7
370
    30
100
AcDbLine
 10
9.0921921097
 20
5.845144835
 30
0.0
 11
9.0921921097
 21
5.0541447794
 31
0.0
  0
ARC
  5
2DE
330
1F
100
AcDbEntity
  8
0
  6
Continuous
 62
     7
370
    30
100
AcDbCircle
 10
9.1071921908
 20
5.0541447719
 30
0.0
 40
0.0150000000000006
100
AcDbArc
 50
180.0
 51
270.0
  0
LINE
  5
2DF
330
1F
100
AcDbEntity
  8
0
  6
Continuous
 62
     7
370
    30
100
AcDbLine
 10
9.1071921231
 20
5.039144766
 30
0.0
 11
9.139692201
 21
5.039144766
 31
0.0
  0
ARC
  5
2E0
330
1F
100
AcDbEntity
  8
0
  6
Continuous
 62
     7
370
    30
100
AcDbCircle
 10
9.1396921908
 20
5.0541447719
 30
0.0
 40
0.0150000000000006
100
AcDbArc
 50
270.0
 51
0.0
  0
LINE
  5
2E1
330
1F
100
AcDbEntity
  8
0
  6
Continuous
 62
     7
370
    30
100
AcDbLine
 10
9.1546922143
 20
5.0541447794
 30
0.0
 11
9.1546922143
 21
5.0928947651
 31
0.0
  0
ARC
  5
2E2
330
1F
100
AcDbEntity
  8
0
  6
Continuous
 62
     7
370
    30
100
AcDbCircle
 10
9.1696921908
 20
5.0928947719
 30
0.0
 40
0.0149999999999997
100
AcDbArc
 50
90.0
 51
180.0
  0
LINE
  5
2E3
330
1F
100
AcDbEntity
  8
0
  6
Continuous
 62
     7
370
    30
100
AcDbLine
 10
9.1696922277
 20
5.1078947785
 30
0.0
 11
9.18969205
 21
5.1078947785
 31
0.0
  0
ARC
  5
2E4
330
1F
100
AcDbEntity
  8
0
  6
Continuous
 62
     7
370
    30
100
AcDbCircle
 10
9.1896921908
 20
5.0928947719
 30
0.0
 40
0.0150000000000006
100
AcDbArc
 50
0.0
 51
90.0
  0
LINE
  5
2E5
330
1F
100
AcDbEntity
  8
0
  6
Continuous
 62
     7
370
    30
100
AcDbLine
 10
9.2046920634
 20
5.0928947651
 30
0.0
 11
9.2046920634
 21
4.9353947712
 31
0.0
  0
ARC
  5
2E6
330
1F
100
AcDbEntity
  8
0
  6
Continuous
 62
     7
370
    30
100
AcDbCircle
 10
9.1896921908
 20
4.9353947719
 30
0.0
 40
0.0150000000000006
100
AcDbArc
 50
270.0
 51
0.0
  0
LINE
  5
2E7
330
1F
100
AcDbEntity
  8
0
  6
Continuous
 62
     7
370
    30
100
AcDbLine
 10
9.18969205
 20
4.9203947578
 30
0.0
 11
9.1696922277
 21
4.9203947578
 31
0.0
  0
ARC
  5
2E8
330
1F
100
AcDbEntity
  8
0
  6
Continuous
 62
     7
370
    30
100
AcDbCircle
 10
9.1696921908
 20
4.9353947719
 30
0.0
 40
0.0149999999999997
100
AcDbArc
 50
180.0
 51
270.0
  0
LINE
  5
2E9
330
1F
100
AcDbEntity
  8
0
  6
Continuous
 62
     7
370
    30
100
AcDbLine
 10
9.1546922143
 20
4.9353947712
 30
0.0
 11
9.1546922143
 21
4.9741447569
 31
0.0
  0
ARC
  5
2EA
330
1F
100
AcDbEntity
  8
0
  6
Continuous
 62
     7
370
    30
100
AcDbCircle
 10
9.1396921908
 20
4.9741447719
 30
0.0
 40
0.0150000000000006
100
AcDbArc
 50
0.0
 51
90.0
  0
LINE
  5
2EB
330
1F
100
AcDbEntity
  8
0
  6
Continuous
 62
     7
370
    30
100
AcDbLine
 10
9.139692201
 20
4.9891447703
 30
0.0
 11
9.1071921231
 21
4.9891447703
 31
0.0
  0
ARC
  5
2EC
330
1F
100
AcDbEntity
  8
0
  6
Continuous
 62
     7
370
    30
100
AcDbCircle
 10
9.1071921908
 20
4.9741447719
 30
0.0
 40
0.0150000000000006
100
AcDbArc
 50
90.0
 51
180.0
  0
LINE
  5
2ED
330
1F
100
AcDbEntity
  8
0
  6
Continuous
 62
     7
370
    30
100
AcDbLine
 10
9.0921921097
 20
4.9741447569
 30
0.0
 11
9.0921921097
 21
4.3791447637
 31
0.0
  0
ARC
  5
2EE
330
1F
100
AcDbEntity
  8
0
  6
Continuous
 62
     7
370
    30
100
AcDbCircle
 10
9.1071921908
 20
4.3791447719
 30
0.0
 40
0.0150000000000006
100
AcDbArc
 50
180.0
 51
270.0
  0
LINE
  5
2EF
330
1F
100
AcDbEntity
  8
0
  6
Continuous
 62
     7
370
    30
100
AcDbLine
 10
9.1071921231
 20
4.364144787
 30
0.0
 11
9.139692201
 21
4.364144787
 31
0.0
  0
ARC
  5
2F0
330
1F
100
AcDbEntity
  8
0
  6
Continuous
 62
     7
370
    30
100
AcDbCircle
 10
9.1396921908
 20
4.3791447719
 30
0.0
 40
0.0150000000000006
100
AcDbArc
 50
270.0
 51
0.0
  0
LINE
  5
2F1
330
1F
100
AcDbEntity
  8
0
  6
Continuous
 62
     7
370
    30
100
AcDbLine
 10
9.1546922143
 20
4.3791447637
 30
0.0
 11
9.1546922143
 21
4.4178947861
 31
0.0
  0
ARC
  5
2F2
330
1F
100
AcDbEntity
  8
0
  6
Continuous
 62
     7
370
    30
100
AcDbCircle
 10
9.1696921908
 20
4.4178947719
 30
0.0
 40
0.0149999999999997
100
AcDbArc
 50
90.0
 51
180.0
  0
LINE
  5
2F3
330
1F
100
AcDbEntity
  8
0
  6
Continuous
 62
     7
370
    30
100
AcDbLine
 10
9.1696922277
 20
4.4328947628
 30
0.0
 11
9.18969205
 21
4.4328947628
 31
0.0
  0
ARC
  5
2F4
330
1F
100
AcDbEntity
  8
0
  6
Continuous
 62
     7
370
    30
100
AcDbCircle
 10
9.1896921908
 20
4.4178947719
 30
0.0
 40
0.0150000000000006
100
AcDbArc
 50
0.0
 51
90.0
  0
LINE
  5
2F5
330
1F
100
AcDbEntity
  8
0
  6
Continuous
 62
     7
370
    30
100
AcDbLine
 10
9.2046920634
 20
4.4178947861
 30
0.0
 11
9.2046920634
 21
4.329144768
 31
0.0
  0
ARC
  5
2F6
330
1F
100
AcDbEntity
  8
0
  6
Continuous
 62
     7
370
    30
100
AcDbCircle
 10
9.1896921908
 20
4.3291447719
 30
0.0
 40
0.0150000000000006
100
AcDbArc
 50
270.0
 51
0.0
  0
LINE
  5
2F7
330
1F
100
AcDbEntity
  8
0
  6
Continuous
 62
     7
370
    30
100
AcDbLine
 10
9.18969205
 20
4.314144773
 30
0.0
 11
9.1071921231
 21
4.314144773
 31
0.0
  0
ARC
  5
2F8
330
1F
100
AcDbEntity
  8
0
  6
Continuous
 62
     7
370
    30
100
AcDbCircle
 10
9.1071921908
 20
4.2991447719
 30
0.0
 40
0.0150000000000006
100
AcDbArc
 50
90.0
 51
180.0
  0
LINE
  5
2F9
330
1F
100
AcDbEntity
  8
0
  6
Continuous
 62
     7
370
    30
100
AcDbLine
 10
9.0921921097
 20
4.2991447779
 30
0.0
 11
9.0921921097
 21
4.1081447718
 31
0.0
  0
ARC
  5
2FA
330
1F
100
AcDbEntity
  8
0
  6
Continuous
 62
     7
370
    30
100
AcDbCircle
 10
9.1071921908
 20
4.1081447719
 30
0.0
 40
0.0150000000000006
100
AcDbArc
 50
180.0
 51
270.0
  0
LINE
  5
2FB
330
1F
100
AcDbEntity
  8
0
  6
Continuous
 62
     7
370
    30
100
AcDbLine
 10
9.1071921231
 20
4.0931447722
 30
0.0
 11
10.3021922117
 21
4.0931447722
 31
0.0
  0
ARC
  5
2FC
330
1F
100
AcDbEntity
  8
0
  6
Continuous
 62
     7
370
    30
100
AcDbCircle
 10
10.3021921908
 20
4.0781447719
 30
0.0
 40
0.0150000000000006
100
AcDbArc
 50
0.0
 51
90.0
  0
LINE
  5
2FD
330
1F
100
AcDbEntity
  8
0
  6
Continuous
 62
     7
370
    30
100
AcDbLine
 10
10.317192225
 20
4.0781447726
 30
0.0
 11
10.317192225
 21
4.0679430688
 31
0.0
  0
ARC
  5
2FE
330
1F
100
AcDbEntity
  8
0
  6
Continuous
 62
     7
370
    30
100
AcDbCircle
 10
10.3021921908
 20
4.0679430696
 30
0.0
 40
0.0150000000000002
100
AcDbArc
 50
270.77564932
 51
0.0
  0
ARC
  5
2FF
330
1F
100
AcDbEntity
  8
0
  6
Continuous
 62
     7
370
    30
100
AcDbCircle
 10
8.6971921908
 20
4.0251447719
 30
0.0
 40
0.0250000000000004
100
AcDbArc
 50
270.0
 51
0.0
  0
LINE
  5
300
330
1F
100
AcDbEntity
  8
0
  6
Continuous
 62
     7
370
    30
100
AcDbLine
 10
0.8171921565
 20
4.0781447726
 30
0.0
 11
0.8171921565
 21
4.0679430688
 31
0.0
  0
ARC
  5
301
330
1F
100
AcDbEntity
  8
0
  6
Continuous
 62
     7
370
    30
100
AcDbCircle
 10
0.8321921908
 20
4.0781447719
 30
0.0
 40
0.0150000000000002
100
AcDbArc
 50
90.0
 51
180.0
  0
LINE
  5
302
330
1F
100
AcDbEntity
  8
0
  6
Continuous
 62
     7
370
    30
100
AcDbLine
 10
0.8321921699
 20
4.0931447722
 30
0.0
 11
2.0271922585
 21
4.0931447722
 31
0.0
  0
ARC
  5
303
330
1F
100
AcDbEntity
  8
0
  6
Continuous
 62
     7
370
    30
100
AcDbCircle
 10
2.0271921908
 20
4.1081447719
 30
0.0
 40
0.0150000000000006
100
AcDbArc
 50
270.0
 51
0.0
  0
LINE
  5
304
330
1F
100
AcDbEntity
  8
0
  6
Continuous
 62
     7
370
    30
100
AcDbLine
 10
2.0421922719
 20
4.1081447718
 30
0.0
 11
2.0421922719
 21
4.2991447779
 31
0.0
  0
ARC
  5
305
330
1F
100
AcDbEntity
  8
0
  6
Continuous
 62
     7
370
    30
100
AcDbCircle
 10
2.0271921908
 20
4.2991447719
 30
0.0
 40
0.0150000000000006
100
AcDbArc
 50
0.0
 51
90.0
  0
LINE
  5
306
330
1F
100
AcDbEntity
  8
0
  6
Continuous
 62
     7
370
    30
100
AcDbLine
 10
2.0271922585
 20
4.314144773
 30
0.0
 11
1.9446923315
 21
4.314144773
 31
0.0
  0
ARC
  5
307
330
1F
100
AcDbEntity
  8
0
  6
Continuous
 62
     7
370
    30
100
AcDbCircle
 10
1.9446921908
 20
4.3291447719
 30
0.0
 40
0.0150000000000006
100
AcDbArc
 50
180.0
 51
270.0
  0
LINE
  5
308
330
1F
100
AcDbEntity
  8
0
  6
Continuous
 62
     7
370
    30
100
AcDbLine
 10
1.9296923182
 20
4.329144768
 30
0.0
 11
1.9296923182
 21
4.4178947861
 31
0.0
  0
ARC
  5
309
330
1F
100
AcDbEntity
  8
0
  6
Continuous
 62
     7
370
    30
100
AcDbCircle
 10
1.9446921908
 20
4.4178947719
 30
0.0
 40
0.0149999999999999
100
AcDbArc
 50
90.0
 51
180.0
  0
LINE
  5
30A
330
1F
100
AcDbEntity
  8
0
  6
Continuous
 62
     7
370
    30
100
AcDbLine
 10
1.9446923315
 20
4.4328947628
 30
0.0
 11
1.9646921538
 21
4.4328947628
 31
0.0
  0
ARC
  5
30B
330
1F
100
AcDbEntity
  8
0
  6
Continuous
 62
     7
370
    30
100
AcDbCircle
 10
1.9646921908
 20
4.4178947719
 30
0.0
 40
0.0149999999999997
100
AcDbArc
 50
0.0
 51
90.0
  0
LINE
  5
30C
330
1F
100
AcDbEntity
  8
0
  6
Continuous
 62
     7
370
    30
100
AcDbLine
 10
1.9796921672
 20
4.4178947861
 30
0.0
 11
1.9796921672
 21
4.3791447637
 31
0.0
  0
ARC
  5
30D
330
1F
100
AcDbEntity
  8
0
  6
Continuous
 62
     7
370
    30
100
AcDbCircle
 10
1.9946921908
 20
4.3791447719
 30
0.0
 40
0.0150000000000003
100
AcDbArc
 50
180.0
 51
270.0
  0
LINE
  5
30E
330
1F
100
AcDbEntity
  8
0
  6
Continuous
 62
     7
370
    30
100
AcDbLine
 10
1.9946921806
 20
4.364144787
 30
0.0
 11
2.0271922585
 21
4.364144787
 31
0.0
  0
ARC
  5
30F
330
1F
100
AcDbEntity
  8
0
  6
Continuous
 62
     7
370
    30
100
AcDbCircle
 10
2.0271921908
 20
4.3791447719
 30
0.0
 40
0.0150000000000006
100
AcDbArc
 50
270.0
 51
0.0
  0
LINE
  5
310
330
1F
100
AcDbEntity
  8
0
  6
Continuous
 62
     7
370
    30
100
AcDbLine
 10
2.0421922719
 20
4.3791447637
 30
0.0
 11
2.0421922719
 21
4.9741447569
 31
0.0
  0
ARC
  5
311
330
1F
100
AcDbEntity
  8
0
  6
Continuous
 62
     7
370
    30
100
AcDbCircle
 10
2.0271921908
 20
4.9741447719
 30
0.0
 40
0.0150000000000001
100
AcDbArc
 50
0.0
 51
90.0
  0
LINE
  5
312
330
1F
100
AcDbEntity
  8
0
  6
Continuous
 62
     7
370
    30
100
AcDbLine
 10
2.0271922585
 20
4.9891447703
 30
0.0
 11
1.9946921806
 21
4.9891447703
 31
0.0
  0
ARC
  5
313
330
1F
100
AcDbEntity
  8
0
  6
Continuous
 62
     7
370
    30
100
AcDbCircle
 10
1.9946921908
 20
4.9741447719
 30
0.0
 40
0.0150000000000003
100
AcDbArc
 50
90.0
 51
180.0
  0
LINE
  5
314
330
1F
100
AcDbEntity
  8
0
  6
Continuous
 62
     7
370
    30
100
AcDbLine
 10
1.9796921672
 20
4.9741447569
 30
0.0
 11
1.9796921672
 21
4.9353947712
 31
0.0
  0
ARC
  5
315
330
1F
100
AcDbEntity
  8
0
  6
Continuous
 62
     7
370
    30
100
AcDbCircle
 10
1.9646921908
 20
4.9353947719
 30
0.0
 40
0.0150000000000006
100
AcDbArc
 50
270.0
 51
0.0
  0
LINE
  5
316
330
1F
100
AcDbEntity
  8
0
  6
Continuous
 62
     7
370
    30
100
AcDbLine
 10
1.9646921538
 20
4.9203947578
 30
0.0
 11
1.9446923315
 21
4.9203947578
 31
0.0
  0
ARC
  5
317
330
1F
100
AcDbEntity
  8
0
  6
Continuous
 62
     7
370
    30
100
AcDbCircle
 10
1.9446921908
 20
4.9353947719
 30
0.0
 40
0.0150000000000006
100
AcDbArc
 50
180.0
 51
270.0
  0
LINE
  5
318
330
1F
100
AcDbEntity
  8
0
  6
Continuous
 62
     7
370
    30
100
AcDbLine
 10
1.9296923182
 20
4.9353947712
 30
0.0
 11
1.9296923182
 21
5.0928947651
 31
0.0
  0
ARC
  5
319
330
1F
100
AcDbEntity
  8
0
  6
Continuous
 62
     7
370
    30
100
AcDbCircle
 10
1.9446921908
 20
5.0928947719
 30
0.0
 40
0.0150000000000003
100
AcDbArc
 50
90.0
 51
180.0
  0
LINE
  5
31A
330
1F
100
AcDbEntity
  8
0
  6
Continuous
 62
     7
370
    30
100
AcDbLine
 10
1.9446923315
 20
5.1078947785
 30
0.0
 11
1.9646921538
 21
5.1078947785
 31
0.0
  0
ARC
  5
31B
330
1F
100
AcDbEntity
  8
0
  6
Continuous
 62
     7
370
    30
100
AcDbCircle
 10
1.9646921908
 20
5.0928947719
 30
0.0
 40
0.0150000000000001
100
AcDbArc
 50
0.0
 51
90.0
  0
LINE
  5
31C
330
1F
100
AcDbEntity
  8
0
  6
Continuous
 62
     7
370
    30
100
AcDbLine
 10
1.9796921672
 20
5.0928947651
 30
0.0
 11
1.9796921672
 21
5.0541447794
 31
0.0
  0
ARC
  5
31D
330
1F
100
AcDbEntity
  8
0
  6
Continuous
 62
     7
370
    30
100
AcDbCircle
 10
1.9946921908
 20
5.0541447719
 30
0.0
 40
0.0149999999999997
100
AcDbArc
 50
180.0
 51
270.0
  0
LINE
  5
31E
330
1F
100
AcDbEntity
  8
0
  6
Continuous
 62
     7
370
    30
100
AcDbLine
 10
1.9946921806
 20
5.039144766
 30
0.0
 11
2.0271922585
 21
5.039144766
 31
0.0
  0
ARC
  5
31F
330
1F
100
AcDbEntity
  8
0
  6
Continuous
 62
     7
370
    30
100
AcDbCircle
 10
2.0271921908
 20
5.0541447719
 30
0.0
 40
0.0150000000000006
100
AcDbArc
 50
270.0
 51
0.0
  0
LINE
  5
320
330
1F
100
AcDbEntity
  8
0
  6
Continuous
 62
     7
370
    30
100
AcDbLine
 10
2.0421922719
 20
5.0541447794
 30
0.0
 11
2.0421922719
 21
5.845144835
 31
0.0
  0
ARC
  5
321
330
1F
100
AcDbEntity
  8
0
  6
Continuous
 62
     7
370
    30
100
AcDbCircle
 10
2.0521921908
 20
5.8451447719
 30
0.0
 40
0.0100000000000002
100
AcDbArc
 50
90.0
 51
180.0
  0
LINE
  5
322
330
1F
100
AcDbEntity
  8
0
  6
Continuous
 62
     7
370
    30
100
AcDbLine
 10
2.052192183
 20
5.8551447462
 30
0.0
 11
2.0821922098
 21
5.8551447462
 31
0.0
  0
ARC
  5
323
330
1F
100
AcDbEntity
  8
0
  6
Continuous
 62
     7
370
    30
100
AcDbCircle
 10
2.0821921908
 20
5.8451447719
 30
0.0
 40
0.0100000000000002
100
AcDbArc
 50
0.0
 51
90.0
  0
LINE
  5
324
330
1F
100
AcDbEntity
  8
0
  6
Continuous
 62
     7
370
    30
100
AcDbLine
 10
2.092192121
 20
5.845144835
 30
0.0
 11
2.092192121
 21
5.2451447396
 31
0.0
  0
ARC
  5
325
330
1F
100
AcDbEntity
  8
0
  6
Continuous
 62
     7
370
    30
100
AcDbCircle
 10
2.1071921908
 20
5.2451447719
 30
0.0
 40
0.0150000000000006
100
AcDbArc
 50
180.0
 51
270.0
  0
LINE
  5
326
330
1F
100
AcDbEntity
  8
0
  6
Continuous
 62
     7
370
    30
100
AcDbLine
 10
2.1071921343
 20
5.2301447996
 30
0.0
 11
2.1391322454
 21
5.2301447996
 31
0.0
  0
ARC
  5
327
330
1F
100
AcDbEntity
  8
0
  6
Continuous
 62
     7
370
    30
100
AcDbCircle
 10
2.1391322359
 20
5.2451447719
 30
0.0
 40
0.0150000000000006
100
AcDbArc
 50
270.0
 51
10.0
  0
LINE
  5
328
330
1F
100
AcDbEntity
  8
0
  6
Continuous
 62
     7
370
    30
100
AcDbLine
 10
2.1539043414
 20
5.2477495095
 30
0.0
 11
2.1481923274
 21
5.280144722
 31
0.0
  0
LINE
  5
329
330
1F
100
AcDbEntity
  8
0
  6
Continuous
 62
     7
370
    30
100
AcDbLine
 10
2.1481923274
 20
5.280144722
 30
0.0
 11
2.181756313
 21
5.3201448066
 31
0.0
  0
LINE
  5
32A
330
1F
100
AcDbEntity
  8
0
  6
Continuous
 62
     7
370
    30
100
AcDbLine
 10
2.181756313
 20
5.3201448066
 30
0.0
 11
2.1881922653
 21
5.3201448066
 31
0.0
  0
ARC
  5
32B
330
1F
100
AcDbEntity
  8
0
  6
Continuous
 62
     7
370
    30
100
AcDbCircle
 10
2.1881921908
 20
5.3101447719
 30
0.0
 40
0.0099999999999998
100
AcDbArc
 50
0.0
 51
90.0
  0
LINE
  5
32C
330
1F
100
AcDbEntity
  8
0
  6
Continuous
 62
     7
370
    30
100
AcDbLine
 10
2.1981921764
 20
5.3101447487
 30
0.0
 11
2.1981921764
 21
5.234837492
 31
0.0
  0
ARC
  5
32D
330
1F
100
AcDbEntity
  8
0
  6
Continuous
 62
     7
370
    30
100
AcDbCircle
 10
2.1531921908
 20
5.2348374726
 30
0.0
 40
0.0449999999999994
100
AcDbArc
 50
276.6997651778
 51
0.0
  0
ARC
  5
32E
330
1F
100
AcDbEntity
  8
0
  6
Continuous
 62
     7
370
    30
100
AcDbCircle
 10
2.1671921908
 20
5.1156569373
 30
0.0
 40
0.0750000000000002
100
AcDbArc
 50
96.6997651778
 51
180.0
  0
LINE
  5
32F
330
1F
100
AcDbEntity
  8
0
  6
Continuous
 62
     7
370
    30
100
AcDbLine
 10
2.092192121
 20
5.1156569488
 30
0.0
 11
2.092192121
 21
4.1081447718
 31
0.0
  0
ARC
  5
330
330
1F
100
AcDbEntity
  8
0
  6
Continuous
 62
     7
370
    30
100
AcDbCircle
 10
2.1071921908
 20
4.1081447719
 30
0.0
 40
0.0149999999999997
100
AcDbArc
 50
180.0
 51
270.0
  0
LINE
  5
331
330
1F
100
AcDbEntity
  8
0
  6
Continuous
 62
     7
370
    30
100
AcDbLine
 10
2.1071921343
 20
4.0931447722
 30
0.0
 11
2.4271922243
 21
4.0931447722
 31
0.0
  0
LINE
  5
332
330
1F
100
AcDbEntity
  8
0
  6
Continuous
 62
     7
370
    30
100
AcDbLine
 10
2.4421922377
 20
4.0781447726
 30
0.0
 11
2.4421922377
 21
4.0051447713
 31
0.0
  0
ARC
  5
333
330
1F
100
AcDbEntity
  8
0
  6
Continuous
 62
     7
370
    30
100
AcDbCircle
 10
2.4371921908
 20
4.0051447719
 30
0.0
 40
0.0050000000000003
100
AcDbArc
 50
270.0
 51
0.0
  0
LINE
  5
334
330
1F
100
AcDbEntity
  8
0
  6
Continuous
 62
     7
370
    30
100
AcDbLine
 10
2.4121922109
 20
4.0251447723
 30
0.0
 11
2.4121922109
 21
4.0315509253
 31
0.0
  0
LINE
  5
335
330
1F
100
AcDbEntity
  8
0
  6
Continuous
 62
     7
370
    30
100
AcDbLine
 10
2.4121922109
 20
4.0315509253
 30
0.0
 11
0.8319891856
 21
4.0529444441
 31
0.0
  0
ARC
  5
336
330
1F
100
AcDbEntity
  8
0
  6
Continuous
 62
     7
370
    30
100
AcDbCircle
 10
0.8321921908
 20
4.0679430696
 30
0.0
 40
0.0150000000000002
100
AcDbArc
 50
180.0
 51
269.22435068
  0
ARC
  5
337
330
1F
100
AcDbEntity
  8
0
  6
Continuous
 62
     7
370
    30
100
AcDbCircle
 10
2.4271921908
 20
4.0781447719
 30
0.0
 40
0.0150000000000006
100
AcDbArc
 50
0.0
 51
90.0
  0
ARC
  5
338
330
1F
100
AcDbEntity
  8
0
  6
Continuous
 62
     7
370
    30
100
AcDbCircle
 10
2.4371921908
 20
4.0251447719
 30
0.0
 40
0.0249999999999999
100
AcDbArc
 50
180.0
 51
270.0
  0
LINE
  5
339
330
1F
100
AcDbEntity
  8
0
  6
Continuous
 62
     7
370
    30
100
AcDbLine
 10
7.9609290981
 20
5.1047522615
 30
0.0
 11
7.957823174
 21
5.0931611087
 31
0.0
  0
LINE
  5
33A
330
1F
100
AcDbEntity
  8
0
  6
Continuous
 62
     7
370
    30
100
AcDbLine
 10
8.0063274804
 20
5.092587722
 30
0.0
 11
7.9609290981
 21
5.1047522615
 31
0.0
  0
ARC
  5
33B
330
1F
100
AcDbEntity
  8
0
  6
Continuous
 62
     7
370
    30
100
AcDbCircle
 10
8.0096921908
 20
5.1051447719
 30
0.0
 40
0.0130000000000026
100
AcDbArc
 50
255.0
 51
90.0
  0
LINE
  5
33C
330
1F
100
AcDbEntity
  8
0
  6
Continuous
 62
     7
370
    30
100
AcDbLine
 10
7.9771921903
 20
5.1181447534
 30
0.0
 11
8.0096921215
 21
5.1181447534
 31
0.0
  0
ARC
  5
33D
330
1F
100
AcDbEntity
  8
0
  6
Continuous
 62
     7
370
    30
100
AcDbCircle
 10
7.9771921908
 20
5.2111447719
 30
0.0
 40
0.093000000000003
100
AcDbArc
 50
109.6973630774
 51
270.0
  0
LINE
  5
33E
330
1F
100
AcDbEntity
  8
0
  6
Continuous
 62
     7
370
    30
100
AcDbLine
 10
8.0638292428
 20
5.340940873
 30
0.0
 11
7.9458463657
 21
5.2987029743
 31
0.0
  0
ARC
  5
33F
330
1F
100
AcDbEntity
  8
0
  6
Continuous
 62
     7
370
    30
100
AcDbCircle
 10
8.0597845803
 20
5.3522386554
 30
0.0
 40
0.0120000000000006
100
AcDbArc
 50
289.6973630774
 51
322.2281218619
  0
ARC
  5
340
330
1F
100
AcDbEntity
  8
0
  6
Continuous
 62
     7
370
    30
100
AcDbCircle
 10
8.1921921908
 20
5.2496368354
 30
0.0
 40
0.1555079365079411
100
AcDbArc
 50
37.7718781381
 51
142.2281218619
  0
ARC
  5
341
330
1F
100
AcDbEntity
  8
0
  6
Continuous
 62
     7
370
    30
100
AcDbCircle
 10
8.3245998013
 20
5.3522386554
 30
0.0
 40
0.0120000000000018
100
AcDbArc
 50
217.7718781381
 51
250.3026369226
  0
LINE
  5
342
330
1F
100
AcDbEntity
  8
0
  6
Continuous
 62
     7
370
    30
100
AcDbLine
 10
8.4385380074
 20
5.2987029743
 30
0.0
 11
8.3205551304
 21
5.340940873
 31
0.0
  0
ARC
  5
343
330
1F
100
AcDbEntity
  8
0
  6
Continuous
 62
     7
370
    30
100
AcDbCircle
 10
8.4071921908
 20
5.2111447719
 30
0.0
 40
0.0930000000000026
100
AcDbArc
 50
270.0
 51
70.3026369226
  0
LINE
  5
344
330
1F
100
AcDbEntity
  8
0
  6
Continuous
 62
     7
370
    30
100
AcDbLine
 10
8.374692105
 20
5.1181447534
 30
0.0
 11
8.4071921829
 21
5.1181447534
 31
0.0
  0
LINE
  5
345
330
1F
100
AcDbEntity
  8
0
  6
Continuous
 62
     7
370
    30
100
AcDbLine
 10
8.4265610524
 20
5.0931611087
 30
0.0
 11
8.423455275
 21
5.1047522615
 31
0.0
  0
LINE
  5
346
330
1F
100
AcDbEntity
  8
0
  6
Continuous
 62
     7
370
    30
100
AcDbLine
 10
8.4265610524
 20
5.0931611087
 30
0.0
 11
8.3811626702
 21
5.0809966425
 31
0.0
  0
ARC
  5
347
330
1F
100
AcDbEntity
  8
0
  6
Continuous
 62
     7
370
    30
100
AcDbCircle
 10
8.3746921908
 20
5.1051447719
 30
0.0
 40
0.0250000000000021
100
AcDbArc
 50
90.0
 51
285.0
  0
LINE
  5
348
330
1F
100
AcDbEntity
  8
0
  6
Continuous
 62
     7
370
    30
100
AcDbLine
 10
8.374692105
 20
5.1301448081
 30
0.0
 11
8.4071921829
 21
5.1301448081
 31
0.0
  0
ARC
  5
349
330
1F
100
AcDbEntity
  8
0
  6
Continuous
 62
     7
370
    30
100
AcDbCircle
 10
8.4071921908
 20
5.2111447719
 30
0.0
 40
0.081000000000004
100
AcDbArc
 50
270.0
 51
70.3026369226
  0
LINE
  5
34A
330
1F
100
AcDbEntity
  8
0
  6
Continuous
 62
     7
370
    30
100
AcDbLine
 10
8.4344932808
 20
5.2874050781
 30
0.0
 11
8.3165106971
 21
5.3296429768
 31
0.0
  0
ARC
  5
34B
330
1F
100
AcDbEntity
  8
0
  6
Continuous
 62
     7
370
    30
100
AcDbCircle
 10
8.3245998013
 20
5.3522386554
 30
0.0
 40
0.0240000000000046
100
AcDbArc
 50
217.7718781381
 51
250.3026369226
  0
ARC
  5
34C
330
1F
100
AcDbEntity
  8
0
  6
Continuous
 62
     7
370
    30
100
AcDbCircle
 10
8.1921921908
 20
5.2496368354
 30
0.0
 40
0.1435079365079386
100
AcDbArc
 50
37.7718781381
 51
142.2281218619
  0
ARC
  5
34D
330
1F
100
AcDbEntity
  8
0
  6
Continuous
 62
     7
370
    30
100
AcDbCircle
 10
8.0597845803
 20
5.3522386554
 30
0.0
 40
0.0240000000000035
100
AcDbArc
 50
289.6973630774
 51
322.2281218619
  0
LINE
  5
34E
330
1F
100
AcDbEntity
  8
0
  6
Continuous
 62
     7
370
    30
100
AcDbLine
 10
8.0678739694
 20
5.3296429768
 30
0.0
 11
7.9498909456
 21
5.2874050781
 31
0.0
  0
ARC
  5
34F
330
1F
100
AcDbEntity
  8
0
  6
Continuous
 62
     7
370
    30
100
AcDbCircle
 10
7.9771921908
 20
5.2111447719
 30
0.0
 40
0.0810000000000022
100
AcDbArc
 50
109.6973630774
 51
270.0
  0
LINE
  5
350
330
1F
100
AcDbEntity
  8
0
  6
Continuous
 62
     7
370
    30
100
AcDbLine
 10
7.9771921903
 20
5.1301448081
 30
0.0
 11
8.0096921215
 21
5.1301448081
 31
0.0
  0
ARC
  5
351
330
1F
100
AcDbEntity
  8
0
  6
Continuous
 62
     7
370
    30
100
AcDbCircle
 10
8.0096921908
 20
5.1051447719
 30
0.0
 40
0.0250000000000021
100
AcDbArc
 50
255.0
 51
90.0
  0
LINE
  5
352
330
1F
100
AcDbEntity
  8
0
  6
Continuous
 62
     7
370
    30
100
AcDbLine
 10
8.0032217029
 20
5.0809966425
 30
0.0
 11
7.957823174
 21
5.0931611087
 31
0.0
  0
LINE
  5
353
330
1F
100
AcDbEntity
  8
0
  6
Continuous
 62
     7
370
    30
100
AcDbLine
 10
8.423455275
 20
5.1047522615
 30
0.0
 11
8.3780568928
 21
5.092587722
 31
0.0
  0
ARC
  5
354
330
1F
100
AcDbEntity
  8
0
  6
Continuous
 62
     7
370
    30
100
AcDbCircle
 10
8.3746921908
 20
5.1051447719
 30
0.0
 40
0.0130000000000008
100
AcDbArc
 50
90.0
 51
285.0
  0
LINE
  5
355
330
1F
100
AcDbEntity
  8
0
  6
Continuous
 62
     7
370
    30
100
AcDbLine
 10
4.4609290304
 20
5.1047522615
 30
0.0
 11
4.4578231796
 21
5.0931611087
 31
0.0
  0
LINE
  5
356
330
1F
100
AcDbEntity
  8
0
  6
Continuous
 62
     7
370
    30
100
AcDbLine
 10
4.5063275593
 20
5.092587722
 30
0.0
 11
4.4609290304
 21
5.1047522615
 31
0.0
  0
ARC
  5
357
330
1F
100
AcDbEntity
  8
0
  6
Continuous
 62
     7
370
    30
100
AcDbCircle
 10
4.5096921908
 20
5.1051447719
 30
0.0
 40
0.0130000000000017
100
AcDbArc
 50
255.0
 51
90.0
  0
LINE
  5
358
330
1F
100
AcDbEntity
  8
0
  6
Continuous
 62
     7
370
    30
100
AcDbLine
 10
4.4771921959
 20
5.1181447534
 30
0.0
 11
4.5096922005
 21
5.1181447534
 31
0.0
  0
ARC
  5
359
330
1F
100
AcDbEntity
  8
0
  6
Continuous
 62
     7
370
    30
100
AcDbCircle
 10
4.4771921908
 20
5.2111447719
 30
0.0
 40
0.0930000000000025
100
AcDbArc
 50
109.6973630774
 51
270.0
  0
LINE
  5
35A
330
1F
100
AcDbEntity
  8
0
  6
Continuous
 62
     7
370
    30
100
AcDbLine
 10
4.5638291751
 20
5.340940873
 30
0.0
 11
4.4458463713
 21
5.2987029743
 31
0.0
  0
ARC
  5
35B
330
1F
100
AcDbEntity
  8
0
  6
Continuous
 62
     7
370
    30
100
AcDbCircle
 10
4.5597845803
 20
5.3522386554
 30
0.0
 40
0.0120000000000006
100
AcDbArc
 50
289.6973630774
 51
322.2281218619
  0
ARC
  5
35C
330
1F
100
AcDbEntity
  8
0
  6
Continuous
 62
     7
370
    30
100
AcDbCircle
 10
4.6921921908
 20
5.2496368354
 30
0.0
 40
0.1555079365079421
100
AcDbArc
 50
37.7718781381
 51
142.2281218619
  0
ARC
  5
35D
330
1F
100
AcDbEntity
  8
0
  6
Continuous
 62
     7
370
    30
100
AcDbCircle
 10
4.8245998013
 20
5.3522386554
 30
0.0
 40
0.0120000000000012
100
AcDbArc
 50
217.7718781381
 51
250.3026369226
  0
LINE
  5
35E
330
1F
100
AcDbEntity
  8
0
  6
Continuous
 62
     7
370
    30
100
AcDbLine
 10
4.9385380131
 20
5.2987029743
 30
0.0
 11
4.8205552093
 21
5.340940873
 31
0.0
  0
ARC
  5
35F
330
1F
100
AcDbEntity
  8
0
  6
Continuous
 62
     7
370
    30
100
AcDbCircle
 10
4.9071921908
 20
5.2111447719
 30
0.0
 40
0.0930000000000017
100
AcDbArc
 50
270.0
 51
70.3026369226
  0
LINE
  5
360
330
1F
100
AcDbEntity
  8
0
  6
Continuous
 62
     7
370
    30
100
AcDbLine
 10
4.8746921839
 20
5.1181447534
 30
0.0
 11
4.9071921885
 21
5.1181447534
 31
0.0
  0
ARC
  5
361
330
1F
100
AcDbEntity
  8
0
  6
Continuous
 62
     7
370
    30
100
AcDbCircle
 10
4.8746921908
 20
5.1051447719
 30
0.0
 40
0.0129999999999999
100
AcDbArc
 50
90.0
 51
285.0
  0
LINE
  5
362
330
1F
100
AcDbEntity
  8
0
  6
Continuous
 62
     7
370
    30
100
AcDbLine
 10
4.9265612047
 20
5.0931611087
 30
0.0
 11
4.923455354
 21
5.1047522615
 31
0.0
  0
LINE
  5
363
330
1F
100
AcDbEntity
  8
0
  6
Continuous
 62
     7
370
    30
100
AcDbLine
 10
4.9265612047
 20
5.0931611087
 30
0.0
 11
4.8811626759
 21
5.0809966425
 31
0.0
  0
ARC
  5
364
330
1F
100
AcDbEntity
  8
0
  6
Continuous
 62
     7
370
    30
100
AcDbCircle
 10
4.8746921908
 20
5.1051447719
 30
0.0
 40
0.0250000000000006
100
AcDbArc
 50
90.0
 51
285.0
  0
LINE
  5
365
330
1F
100
AcDbEntity
  8
0
  6
Continuous
 62
     7
370
    30
100
AcDbLine
 10
4.8746921839
 20
5.1301448081
 30
0.0
 11
4.9071921885
 21
5.1301448081
 31
0.0
  0
ARC
  5
366
330
1F
100
AcDbEntity
  8
0
  6
Continuous
 62
     7
370
    30
100
AcDbCircle
 10
4.9071921908
 20
5.2111447719
 30
0.0
 40
0.0810000000000031
100
AcDbArc
 50
270.0
 51
70.3026369226
  0
LINE
  5
367
330
1F
100
AcDbEntity
  8
0
  6
Continuous
 62
     7
370
    30
100
AcDbLine
 10
4.9344934331
 20
5.2874050781
 30
0.0
 11
4.8165105561
 21
5.3296429768
 31
0.0
  0
ARC
  5
368
330
1F
100
AcDbEntity
  8
0
  6
Continuous
 62
     7
370
    30
100
AcDbCircle
 10
4.8245998013
 20
5.3522386554
 30
0.0
 40
0.0240000000000038
100
AcDbArc
 50
217.7718781381
 51
250.3026369226
  0
ARC
  5
369
330
1F
100
AcDbEntity
  8
0
  6
Continuous
 62
     7
370
    30
100
AcDbCircle
 10
4.6921921908
 20
5.2496368354
 30
0.0
 40
0.14350793650794
100
AcDbArc
 50
37.7718781381
 51
142.2281218619
  0
ARC
  5
36A
330
1F
100
AcDbEntity
  8
0
  6
Continuous
 62
     7
370
    30
100
AcDbCircle
 10
4.5597845803
 20
5.3522386554
 30
0.0
 40
0.0240000000000032
100
AcDbArc
 50
289.6973630774
 51
322.2281218619
  0
LINE
  5
36B
330
1F
100
AcDbEntity
  8
0
  6
Continuous
 62
     7
370
    30
100
AcDbLine
 10
4.5678738283
 20
5.3296429768
 30
0.0
 11
4.4498909513
 21
5.2874050781
 31
0.0
  0
ARC
  5
36C
330
1F
100
AcDbEntity
  8
0
  6
Continuous
 62
     7
370
    30
100
AcDbCircle
 10
4.4771921908
 20
5.2111447719
 30
0.0
 40
0.0810000000000016
100
AcDbArc
 50
109.6973630774
 51
270.0
  0
LINE
  5
36D
330
1F
100
AcDbEntity
  8
0
  6
Continuous
 62
     7
370
    30
100
AcDbLine
 10
4.4771921959
 20
5.1301448081
 30
0.0
 11
4.5096922005
 21
5.1301448081
 31
0.0
  0
ARC
  5
36E
330
1F
100
AcDbEntity
  8
0
  6
Continuous
 62
     7
370
    30
100
AcDbCircle
 10
4.5096921908
 20
5.1051447719
 30
0.0
 40
0.0250000000000012
100
AcDbArc
 50
255.0
 51
90.0
  0
LINE
  5
36F
330
1F
100
AcDbEntity
  8
0
  6
Continuous
 62
     7
370
    30
100
AcDbLine
 10
4.5032217085
 20
5.0809966425
 30
0.0
 11
4.4578231796
 21
5.0931611087
 31
0.0
  0
LINE
  5
370
330
1F
100
AcDbEntity
  8
0
  6
Continuous
 62
     7
370
    30
100
AcDbLine
 10
4.923455354
 20
5.1047522615
 30
0.0
 11
4.8780568251
 21
5.092587722
 31
0.0
  0
LINE
  5
371
330
1F
100
AcDbEntity
  8
0
  6
Continuous
 62
     7
370
    30
100
AcDbLine
 10
2.7109291066
 20
5.1047522615
 30
0.0
 11
2.7078233291
 21
5.0931611087
 31
0.0
  0
LINE
  5
372
330
1F
100
AcDbEntity
  8
0
  6
Continuous
 62
     7
370
    30
100
AcDbLine
 10
2.7563274888
 20
5.092587722
 30
0.0
 11
2.7109291066
 21
5.1047522615
 31
0.0
  0
ARC
  5
373
330
1F
100
AcDbEntity
  8
0
  6
Continuous
 62
     7
370
    30
100
AcDbCircle
 10
2.7596921908
 20
5.1051447719
 30
0.0
 40
0.0130000000000017
100
AcDbArc
 50
255.0
 51
90.0
  0
LINE
  5
374
330
1F
100
AcDbEntity
  8
0
  6
Continuous
 62
     7
370
    30
100
AcDbLine
 10
2.7271921987
 20
5.1181447534
 30
0.0
 11
2.7596922766
 21
5.1181447534
 31
0.0
  0
ARC
  5
375
330
1F
100
AcDbEntity
  8
0
  6
Continuous
 62
     7
370
    30
100
AcDbCircle
 10
2.7271921908
 20
5.2111447719
 30
0.0
 40
0.0930000000000017
100
AcDbArc
 50
109.6973630774
 51
270.0
  0
LINE
  5
376
330
1F
100
AcDbEntity
  8
0
  6
Continuous
 62
     7
370
    30
100
AcDbLine
 10
2.8138292512
 20
5.340940873
 30
0.0
 11
2.6958463742
 21
5.2987029743
 31
0.0
  0
ARC
  5
377
330
1F
100
AcDbEntity
  8
0
  6
Continuous
 62
     7
370
    30
100
AcDbCircle
 10
2.8097845803
 20
5.3522386554
 30
0.0
 40
0.0120000000000007
100
AcDbArc
 50
289.6973630774
 51
322.2281218619
  0
ARC
  5
378
330
1F
100
AcDbEntity
  8
0
  6
Continuous
 62
     7
370
    30
100
AcDbCircle
 10
2.9421921908
 20
5.2496368354
 30
0.0
 40
0.1555079365079423
100
AcDbArc
 50
37.7718781381
 51
142.2281218619
  0
ARC
  5
379
330
1F
100
AcDbEntity
  8
0
  6
Continuous
 62
     7
370
    30
100
AcDbCircle
 10
3.0745998013
 20
5.3522386554
 30
0.0
 40
0.0120000000000012
100
AcDbArc
 50
217.7718781381
 51
250.3026369226
  0
LINE
  5
37A
330
1F
100
AcDbEntity
  8
0
  6
Continuous
 62
     7
370
    30
100
AcDbLine
 10
3.1885380159
 20
5.2987029743
 30
0.0
 11
3.0705551388
 21
5.340940873
 31
0.0
  0
ARC
  5
37B
330
1F
100
AcDbEntity
  8
0
  6
Continuous
 62
     7
370
    30
100
AcDbCircle
 10
3.1571921908
 20
5.2111447719
 30
0.0
 40
0.0930000000000029
100
AcDbArc
 50
270.0
 51
70.3026369226
  0
LINE
  5
37C
330
1F
100
AcDbEntity
  8
0
  6
Continuous
 62
     7
370
    30
100
AcDbLine
 10
3.1246922601
 20
5.1181447534
 30
0.0
 11
3.1571921913
 21
5.1181447534
 31
0.0
  0
LINE
  5
37D
330
1F
100
AcDbEntity
  8
0
  6
Continuous
 62
     7
370
    30
100
AcDbLine
 10
3.1765612076
 20
5.0931611087
 30
0.0
 11
3.1734552834
 21
5.1047522615
 31
0.0
  0
LINE
  5
37E
330
1F
100
AcDbEntity
  8
0
  6
Continuous
 62
     7
370
    30
100
AcDbLine
 10
3.1765612076
 20
5.0931611087
 30
0.0
 11
3.1311626787
 21
5.0809966425
 31
0.0
  0
ARC
  5
37F
330
1F
100
AcDbEntity
  8
0
  6
Continuous
 62
     7
370
    30
100
AcDbCircle
 10
3.1246921908
 20
5.1051447719
 30
0.0
 40
0.0249999999999997
100
AcDbArc
 50
90.0
 51
285.0
  0
LINE
  5
380
330
1F
100
AcDbEntity
  8
0
  6
Continuous
 62
     7
370
    30
100
AcDbLine
 10
3.1246922601
 20
5.1301448081
 30
0.0
 11
3.1571921913
 21
5.1301448081
 31
0.0
  0
ARC
  5
381
330
1F
100
AcDbEntity
  8
0
  6
Continuous
 62
     7
370
    30
100
AcDbCircle
 10
3.1571921908
 20
5.2111447719
 30
0.0
 40
0.0810000000000022
100
AcDbArc
 50
270.0
 51
70.3026369226
  0
LINE
  5
382
330
1F
100
AcDbEntity
  8
0
  6
Continuous
 62
     7
370
    30
100
AcDbLine
 10
3.1844934359
 20
5.2874050781
 30
0.0
 11
3.0665104122
 21
5.3296429768
 31
0.0
  0
ARC
  5
383
330
1F
100
AcDbEntity
  8
0
  6
Continuous
 62
     7
370
    30
100
AcDbCircle
 10
3.0745998013
 20
5.3522386554
 30
0.0
 40
0.0240000000000036
100
AcDbArc
 50
217.7718781381
 51
250.3026369226
  0
ARC
  5
384
330
1F
100
AcDbEntity
  8
0
  6
Continuous
 62
     7
370
    30
100
AcDbCircle
 10
2.9421921908
 20
5.2496368354
 30
0.0
 40
0.14350793650794
100
AcDbArc
 50
37.7718781381
 51
142.2281218619
  0
ARC
  5
385
330
1F
100
AcDbEntity
  8
0
  6
Continuous
 62
     7
370
    30
100
AcDbCircle
 10
2.8097845803
 20
5.3522386554
 30
0.0
 40
0.024000000000003
100
AcDbArc
 50
289.6973630774
 51
322.2281218619
  0
LINE
  5
386
330
1F
100
AcDbEntity
  8
0
  6
Continuous
 62
     7
370
    30
100
AcDbLine
 10
2.8178736845
 20
5.3296429768
 30
0.0
 11
2.6998911008
 21
5.2874050781
 31
0.0
  0
ARC
  5
387
330
1F
100
AcDbEntity
  8
0
  6
Continuous
 62
     7
370
    30
100
AcDbCircle
 10
2.7271921908
 20
5.2111447719
 30
0.0
 40
0.0810000000000022
100
AcDbArc
 50
109.6973630774
 51
270.0
  0
LINE
  5
388
330
1F
100
AcDbEntity
  8
0
  6
Continuous
 62
     7
370
    30
100
AcDbLine
 10
2.7271921987
 20
5.1301448081
 30
0.0
 11
2.7596922766
 21
5.1301448081
 31
0.0
  0
ARC
  5
389
330
1F
100
AcDbEntity
  8
0
  6
Continuous
 62
     7
370
    30
100
AcDbCircle
 10
2.7596921908
 20
5.1051447719
 30
0.0
 40
0.0250000000000021
100
AcDbArc
 50
255.0
 51
90.0
  0
LINE
  5
38A
330
1F
100
AcDbEntity
  8
0
  6
Continuous
 62
     7
370
    30
100
AcDbLine
 10
2.7532217113
 20
5.0809966425
 30
0.0
 11
2.7078233291
 21
5.0931611087
 31
0.0
  0
LINE
  5
38B
330
1F
100
AcDbEntity
  8
0
  6
Continuous
 62
     7
370
    30
100
AcDbLine
 10
3.1734552834
 20
5.1047522615
 30
0.0
 11
3.1280569012
 21
5.092587722
 31
0.0
  0
ARC
  5
38C
330
1F
100
AcDbEntity
  8
0
  6
Continuous
 62
     7
370
    30
100
AcDbCircle
 10
3.1246921908
 20
5.1051447719
 30
0.0
 40
0.0130000000000005
100
AcDbArc
 50
90.0
 51
285.0
  0
LINE
  5
38D
330
1F
100
AcDbEntity
  8
0
  6
Continuous
 62
     7
370
    30
100
AcDbLine
 10
6.2109290276
 20
5.1047522615
 30
0.0
 11
6.2078231768
 21
5.0931611087
 31
0.0
  0
LINE
  5
38E
330
1F
100
AcDbEntity
  8
0
  6
Continuous
 62
     7
370
    30
100
AcDbLine
 10
6.2563275565
 20
5.092587722
 30
0.0
 11
6.2109290276
 21
5.1047522615
 31
0.0
  0
ARC
  5
38F
330
1F
100
AcDbEntity
  8
0
  6
Continuous
 62
     7
370
    30
100
AcDbCircle
 10
6.2596921908
 20
5.1051447719
 30
0.0
 40
0.0130000000000026
100
AcDbArc
 50
255.0
 51
90.0
  0
LINE
  5
390
330
1F
100
AcDbEntity
  8
0
  6
Continuous
 62
     7
370
    30
100
AcDbLine
 10
6.2271921931
 20
5.1181447534
 30
0.0
 11
6.2596921976
 21
5.1181447534
 31
0.0
  0
ARC
  5
391
330
1F
100
AcDbEntity
  8
0
  6
Continuous
 62
     7
370
    30
100
AcDbCircle
 10
6.2271921908
 20
5.2111447719
 30
0.0
 40
0.0930000000000033
100
AcDbArc
 50
109.6973630774
 51
270.0
  0
LINE
  5
392
330
1F
100
AcDbEntity
  8
0
  6
Continuous
 62
     7
370
    30
100
AcDbLine
 10
6.3138291722
 20
5.340940873
 30
0.0
 11
6.1958463685
 21
5.2987029743
 31
0.0
  0
ARC
  5
393
330
1F
100
AcDbEntity
  8
0
  6
Continuous
 62
     7
370
    30
100
AcDbCircle
 10
6.3097845803
 20
5.3522386554
 30
0.0
 40
0.0120000000000009
100
AcDbArc
 50
289.6973630774
 51
322.2281218619
  0
ARC
  5
394
330
1F
100
AcDbEntity
  8
0
  6
Continuous
 62
     7
370
    30
100
AcDbCircle
 10
6.4421921908
 20
5.2496368354
 30
0.0
 40
0.1555079365079411
100
AcDbArc
 50
37.7718781381
 51
142.2281218619
  0
ARC
  5
395
330
1F
100
AcDbEntity
  8
0
  6
Continuous
 62
     7
370
    30
100
AcDbCircle
 10
6.5745998013
 20
5.3522386554
 30
0.0
 40
0.0120000000000012
100
AcDbArc
 50
217.7718781381
 51
250.3026369226
  0
LINE
  5
396
330
1F
100
AcDbEntity
  8
0
  6
Continuous
 62
     7
370
    30
100
AcDbLine
 10
6.6885380102
 20
5.2987029743
 30
0.0
 11
6.5705552065
 21
5.340940873
 31
0.0
  0
ARC
  5
397
330
1F
100
AcDbEntity
  8
0
  6
Continuous
 62
     7
370
    30
100
AcDbCircle
 10
6.6571921908
 20
5.2111447719
 30
0.0
 40
0.0930000000000026
100
AcDbArc
 50
270.0
 51
70.3026369226
  0
LINE
  5
398
330
1F
100
AcDbEntity
  8
0
  6
Continuous
 62
     7
370
    30
100
AcDbLine
 10
6.6246921811
 20
5.1181447534
 30
0.0
 11
6.6571921857
 21
5.1181447534
 31
0.0
  0
LINE
  5
399
330
1F
100
AcDbEntity
  8
0
  6
Continuous
 62
     7
370
    30
100
AcDbLine
 10
6.6765612019
 20
5.0931611087
 30
0.0
 11
6.6734553511
 21
5.1047522615
 31
0.0
  0
LINE
  5
39A
330
1F
100
AcDbEntity
  8
0
  6
Continuous
 62
     7
370
    30
100
AcDbLine
 10
6.6765612019
 20
5.0931611087
 30
0.0
 11
6.631162673
 21
5.0809966425
 31
0.0
  0
ARC
  5
39B
330
1F
100
AcDbEntity
  8
0
  6
Continuous
 62
     7
370
    30
100
AcDbCircle
 10
6.6246921908
 20
5.1051447719
 30
0.0
 40
0.0250000000000021
100
AcDbArc
 50
90.0
 51
285.0
  0
LINE
  5
39C
330
1F
100
AcDbEntity
  8
0
  6
Continuous
 62
     7
370
    30
100
AcDbLine
 10
6.6246921811
 20
5.1301448081
 30
0.0
 11
6.6571921857
 21
5.1301448081
 31
0.0
  0
ARC
  5
39D
330
1F
100
AcDbEntity
  8
0
  6
Continuous
 62
     7
370
    30
100
AcDbCircle
 10
6.6571921908
 20
5.2111447719
 30
0.0
 40
0.081000000000004
100
AcDbArc
 50
270.0
 51
70.3026369226
  0
LINE
  5
39E
330
1F
100
AcDbEntity
  8
0
  6
Continuous
 62
     7
370
    30
100
AcDbLine
 10
6.6844934303
 20
5.2874050781
 30
0.0
 11
6.5665105532
 21
5.3296429768
 31
0.0
  0
ARC
  5
39F
330
1F
100
AcDbEntity
  8
0
  6
Continuous
 62
     7
370
    30
100
AcDbCircle
 10
6.5745998013
 20
5.3522386554
 30
0.0
 40
0.0240000000000035
100
AcDbArc
 50
217.7718781381
 51
250.3026369226
  0
ARC
  5
3A0
330
1F
100
AcDbEntity
  8
0
  6
Continuous
 62
     7
370
    30
100
AcDbCircle
 10
6.4421921908
 20
5.2496368354
 30
0.0
 40
0.14350793650794
100
AcDbArc
 50
37.7718781381
 51
142.2281218619
  0
ARC
  5
3A1
330
1F
100
AcDbEntity
  8
0
  6
Continuous
 62
     7
370
    30
100
AcDbCircle
 10
6.3097845803
 20
5.3522386554
 30
0.0
 40
0.0240000000000032
100
AcDbArc
 50
289.6973630774
 51
322.2281218619
  0
LINE
  5
3A2
330
1F
100
AcDbEntity
  8
0
  6
Continuous
 62
     7
370
    30
100
AcDbLine
 10
6.3178738255
 20
5.3296429768
 30
0.0
 11
6.1998909485
 21
5.2874050781
 31
0.0
  0
ARC
  5
3A3
330
1F
100
AcDbEntity
  8
0
  6
Continuous
 62
     7
370
    30
100
AcDbCircle
 10
6.2271921908
 20
5.2111447719
 30
0.0
 40
0.0810000000000024
100
AcDbArc
 50
109.6973630774
 51
270.0
  0
LINE
  5
3A4
330
1F
100
AcDbEntity
  8
0
  6
Continuous
 62
     7
370
    30
100
AcDbLine
 10
6.2271921931
 20
5.1301448081
 30
0.0
 11
6.2596921976
 21
5.1301448081
 31
0.0
  0
ARC
  5
3A5
330
1F
100
AcDbEntity
  8
0
  6
Continuous
 62
     7
370
    30
100
AcDbCircle
 10
6.2596921908
 20
5.1051447719
 30
0.0
 40
0.0250000000000021
100
AcDbArc
 50
255.0
 51
90.0
  0
LINE
  5
3A6
330
1F
100
AcDbEntity
  8
0
  6
Continuous
 62
     7
370
    30
100
AcDbLine
 10
6.2532217057
 20
5.0809966425
 30
0.0
 11
6.2078231768
 21
5.0931611087
 31
0.0
  0
LINE
  5
3A7
330
1F
100
AcDbEntity
  8
0
  6
Continuous
 62
     7
370
    30
100
AcDbLine
 10
6.6734553511
 20
5.1047522615
 30
0.0
 11
6.6280568223
 21
5.092587722
 31
0.0
  0
ARC
  5
3A8
330
1F
100
AcDbEntity
  8
0
  6
Continuous
 62
     7
370
    30
100
AcDbCircle
 10
6.6246921908
 20
5.1051447719
 30
0.0
 40
0.0130000000000008
100
AcDbArc
 50
90.0
 51
285.0
  0
LINE
  5
3A9
330
1F
100
AcDbEntity
  8
0
  6
Continuous
 62
     7
370
    30
100
AcDbLine
 10
8.9791923217
 20
5.8551447462
 30
0.0
 11
8.9791923217
 21
5.2884870256
 31
0.0
  0
LINE
  5
3AA
330
1F
100
AcDbEntity
  8
0
  6
Continuous
 62
     7
370
    30
100
AcDbLine
 10
8.9791923217
 20
5.8551447462
 30
0.0
 11
9.0421922606
 21
5.8551447462
 31
0.0
  0
LINE
  5
3AB
330
1F
100
AcDbEntity
  8
0
  6
Continuous
 62
     7
370
    30
100
AcDbLine
 10
9.0421922606
 20
5.845144835
 30
0.0
 11
9.0421922606
 21
5.8551447462
 31
0.0
  0
LINE
  5
3AC
330
1F
100
AcDbEntity
  8
0
  6
Continuous
 62
     7
370
    30
100
AcDbLine
 10
7.4051921981
 20
5.8551447462
 30
0.0
 11
7.4051921981
 21
5.2884870256
 31
0.0
  0
LINE
  5
3AD
330
1F
100
AcDbEntity
  8
0
  6
Continuous
 62
     7
370
    30
100
AcDbLine
 10
7.4051921981
 20
5.2404458139
 30
0.0
 11
7.4051921981
 21
5.2301447996
 31
0.0
  0
LINE
  5
3AE
330
1F
100
AcDbEntity
  8
0
  6
Continuous
 62
     7
370
    30
100
AcDbLine
 10
7.4051921981
 20
5.8551447462
 30
0.0
 11
7.3421922592
 21
5.8551447462
 31
0.0
  0
LINE
  5
3AF
330
1F
100
AcDbEntity
  8
0
  6
Continuous
 62
     7
370
    30
100
AcDbLine
 10
8.9641923084
 20
5.8551447462
 30
0.0
 11
8.9641923084
 21
5.3551447889
 31
0.0
  0
LINE
  5
3B0
330
1F
100
AcDbEntity
  8
0
  6
Continuous
 62
     7
370
    30
100
AcDbLine
 10
8.9791923217
 20
5.8551447462
 30
0.0
 11
8.9641923084
 21
5.8551447462
 31
0.0
  0
LINE
  5
3B1
330
1F
100
AcDbEntity
  8
0
  6
Continuous
 62
     7
370
    30
100
AcDbLine
 10
8.9641923084
 20
5.3551447889
 30
0.0
 11
8.9791923217
 21
5.3551447889
 31
0.0
  0
LINE
  5
3B2
330
1F
100
AcDbEntity
  8
0
  6
Continuous
 62
     7
370
    30
100
AcDbLine
 10
7.4201922114
 20
5.3551447889
 30
0.0
 11
7.4201922114
 21
5.8551447462
 31
0.0
  0
LINE
  5
3B3
330
1F
100
AcDbEntity
  8
0
  6
Continuous
 62
     7
370
    30
100
AcDbLine
 10
7.4201922114
 20
5.8551447462
 30
0.0
 11
7.4051921981
 21
5.8551447462
 31
0.0
  0
LINE
  5
3B4
330
1F
100
AcDbEntity
  8
0
  6
Continuous
 62
     7
370
    30
100
AcDbLine
 10
7.4051921981
 20
5.3551447889
 30
0.0
 11
7.4201922114
 21
5.3551447889
 31
0.0
  0
LINE
  5
3B5
330
1F
100
AcDbEntity
  8
0
  6
Continuous
 62
     7
370
    30
100
AcDbLine
 10
8.9641923084
 20
5.3551447889
 30
0.0
 11
8.3064321735
 21
5.3551447889
 31
0.0
  0
LINE
  5
3B6
330
1F
100
AcDbEntity
  8
0
  6
Continuous
 62
     7
370
    30
100
AcDbLine
 10
8.2894680228
 20
5.3551447889
 30
0.0
 11
8.0949163503
 21
5.3551447889
 31
0.0
  0
LINE
  5
3B7
330
1F
100
AcDbEntity
  8
0
  6
Continuous
 62
     7
370
    30
100
AcDbLine
 10
8.0779521996
 20
5.3551447889
 30
0.0
 11
7.4201922114
 21
5.3551447889
 31
0.0
  0
LINE
  5
3B8
330
1F
100
AcDbEntity
  8
0
  6
Continuous
 62
     7
370
    30
100
AcDbLine
 10
7.4201922114
 20
5.8551447462
 30
0.0
 11
7.4731922392
 21
5.8551447462
 31
0.0
  0
LINE
  5
3B9
330
1F
100
AcDbEntity
  8
0
  6
Continuous
 62
     7
370
    30
100
AcDbLine
 10
7.4731922392
 20
5.8711447214
 30
0.0
 11
7.4731922392
 21
5.8551447462
 31
0.0
  0
LINE
  5
3BA
330
1F
100
AcDbEntity
  8
0
  6
Continuous
 62
     7
370
    30
100
AcDbLine
 10
7.4731922392
 20
5.8711447214
 30
0.0
 11
8.9111922806
 21
5.8711447214
 31
0.0
  0
LINE
  5
3BB
330
1F
100
AcDbEntity
  8
0
  6
Continuous
 62
     7
370
    30
100
AcDbLine
 10
8.9111922806
 20
5.8551447462
 30
0.0
 11
8.9111922806
 21
5.8711447214
 31
0.0
  0
LINE
  5
3BC
330
1F
100
AcDbEntity
  8
0
  6
Continuous
 62
     7
370
    30
100
AcDbLine
 10
8.9111922806
 20
5.8551447462
 30
0.0
 11
8.9641923084
 21
5.8551447462
 31
0.0
  0
LINE
  5
3BD
330
1F
100
AcDbEntity
  8
0
  6
Continuous
 62
     7
370
    30
100
AcDbLine
 10
7.4731922392
 20
5.9491448203
 30
0.0
 11
7.4731922392
 21
5.8711447214
 31
0.0
  0
LINE
  5
3BE
330
1F
100
AcDbEntity
  8
0
  6
Continuous
 62
     7
370
    30
100
AcDbLine
 10
7.4731922392
 20
5.9491448203
 30
0.0
 11
8.9111922806
 21
5.9491448203
 31
0.0
  0
LINE
  5
3BF
330
1F
100
AcDbEntity
  8
0
  6
Continuous
 62
     7
370
    30
100
AcDbLine
 10
8.9111922806
 20
5.8711447214
 30
0.0
 11
8.9111922806
 21
5.9491448203
 31
0.0
  0
LINE
  5
3C0
330
1F
100
AcDbEntity
  8
0
  6
Continuous
 62
     7
370
    30
100
AcDbLine
 10
8.4421923119
 20
5.3211447683
 30
0.0
 11
8.4421923119
 21
5.3551447889
 31
0.0
  0
LINE
  5
3C1
330
1F
100
AcDbEntity
  8
0
  6
Continuous
 62
     7
370
    30
100
AcDbLine
 10
7.9421922079
 20
5.3551447889
 30
0.0
 11
7.9421922079
 21
5.3211447683
 31
0.0
  0
LINE
  5
3C2
330
1F
100
AcDbEntity
  8
0
  6
Continuous
 62
     7
370
    30
100
AcDbLine
 10
8.4421923119
 20
5.3211447683
 30
0.0
 11
8.4421923119
 21
5.297307457
 31
0.0
  0
LINE
  5
3C3
330
1F
100
AcDbEntity
  8
0
  6
Continuous
 62
     7
370
    30
100
AcDbLine
 10
8.4421923119
 20
5.2841926752
 30
0.0
 11
8.4421923119
 21
5.2431447427
 31
0.0
  0
LINE
  5
3C4
330
1F
100
AcDbEntity
  8
0
  6
Continuous
 62
     7
370
    30
100
AcDbLine
 10
8.4421923119
 20
5.2431447427
 30
0.0
 11
8.3801923348
 21
5.2431447427
 31
0.0
  0
LINE
  5
3C5
330
1F
100
AcDbEntity
  8
0
  6
Continuous
 62
     7
370
    30
100
AcDbLine
 10
8.2657619767
 20
5.2431447427
 30
0.0
 11
8.1013115298
 21
5.2431447427
 31
0.0
  0
LINE
  5
3C6
330
1F
100
AcDbEntity
  8
0
  6
Continuous
 62
     7
370
    30
100
AcDbLine
 10
8.004192185
 20
5.2431447427
 30
0.0
 11
7.9421922079
 21
5.2431447427
 31
0.0
  0
LINE
  5
3C7
330
1F
100
AcDbEntity
  8
0
  6
Continuous
 62
     7
370
    30
100
AcDbLine
 10
7.9421922079
 20
5.2431447427
 30
0.0
 11
7.9421922079
 21
5.2841926752
 31
0.0
  0
LINE
  5
3C8
330
1F
100
AcDbEntity
  8
0
  6
Continuous
 62
     7
370
    30
100
AcDbLine
 10
7.9421922079
 20
5.297307457
 30
0.0
 11
7.9421922079
 21
5.3211447683
 31
0.0
  0
LINE
  5
3C9
330
1F
100
AcDbEntity
  8
0
  6
Continuous
 62
     7
370
    30
100
AcDbLine
 10
7.2291921779
 20
5.8551447462
 30
0.0
 11
7.2291921779
 21
5.2884870256
 31
0.0
  0
LINE
  5
3CA
330
1F
100
AcDbEntity
  8
0
  6
Continuous
 62
     7
370
    30
100
AcDbLine
 10
7.2291921779
 20
5.2404458139
 30
0.0
 11
7.2291921779
 21
5.2301447996
 31
0.0
  0
LINE
  5
3CB
330
1F
100
AcDbEntity
  8
0
  6
Continuous
 62
     7
370
    30
100
AcDbLine
 10
7.2291921779
 20
5.8551447462
 30
0.0
 11
7.2921922634
 21
5.8551447462
 31
0.0
  0
LINE
  5
3CC
330
1F
100
AcDbEntity
  8
0
  6
Continuous
 62
     7
370
    30
100
AcDbLine
 10
5.6551921917
 20
5.8551447462
 30
0.0
 11
5.6551921917
 21
5.2884870256
 31
0.0
  0
LINE
  5
3CD
330
1F
100
AcDbEntity
  8
0
  6
Continuous
 62
     7
370
    30
100
AcDbLine
 10
5.6551921917
 20
5.2404458139
 30
0.0
 11
5.6551921917
 21
5.2301447996
 31
0.0
  0
LINE
  5
3CE
330
1F
100
AcDbEntity
  8
0
  6
Continuous
 62
     7
370
    30
100
AcDbLine
 10
5.6551921917
 20
5.8551447462
 30
0.0
 11
5.5921921909
 21
5.8551447462
 31
0.0
  0
LINE
  5
3CF
330
1F
100
AcDbEntity
  8
0
  6
Continuous
 62
     7
370
    30
100
AcDbLine
 10
7.2141921645
 20
5.8551447462
 30
0.0
 11
7.2141921645
 21
5.3551447889
 31
0.0
  0
LINE
  5
3D0
330
1F
100
AcDbEntity
  8
0
  6
Continuous
 62
     7
370
    30
100
AcDbLine
 10
7.2141921645
 20
5.3551447889
 30
0.0
 11
7.2291921779
 21
5.3551447889
 31
0.0
  0
LINE
  5
3D1
330
1F
100
AcDbEntity
  8
0
  6
Continuous
 62
     7
370
    30
100
AcDbLine
 10
7.2291921779
 20
5.8551447462
 30
0.0
 11
7.2141921645
 21
5.8551447462
 31
0.0
  0
LINE
  5
3D2
330
1F
100
AcDbEntity
  8
0
  6
Continuous
 62
     7
370
    30
100
AcDbLine
 10
5.6701921868
 20
5.8551447462
 30
0.0
 11
5.6551921917
 21
5.8551447462
 31
0.0
  0
LINE
  5
3D3
330
1F
100
AcDbEntity
  8
0
  6
Continuous
 62
     7
370
    30
100
AcDbLine
 10
5.6701921868
 20
5.3551447889
 30
0.0
 11
5.6701921868
 21
5.8551447462
 31
0.0
  0
LINE
  5
3D4
330
1F
100
AcDbEntity
  8
0
  6
Continuous
 62
     7
370
    30
100
AcDbLine
 10
5.6551921917
 20
5.3551447889
 30
0.0
 11
5.6701921868
 21
5.3551447889
 31
0.0
  0
LINE
  5
3D5
330
1F
100
AcDbEntity
  8
0
  6
Continuous
 62
     7
370
    30
100
AcDbLine
 10
7.2141921645
 20
5.3551447889
 30
0.0
 11
6.5564322497
 21
5.3551447889
 31
0.0
  0
LINE
  5
3D6
330
1F
100
AcDbEntity
  8
0
  6
Continuous
 62
     7
370
    30
100
AcDbLine
 10
6.539468099
 20
5.3551447889
 30
0.0
 11
6.3449162798
 21
5.3551447889
 31
0.0
  0
LINE
  5
3D7
330
1F
100
AcDbEntity
  8
0
  6
Continuous
 62
     7
370
    30
100
AcDbLine
 10
6.3279521291
 20
5.3551447889
 30
0.0
 11
5.6701921868
 21
5.3551447889
 31
0.0
  0
LINE
  5
3D8
330
1F
100
AcDbEntity
  8
0
  6
Continuous
 62
     7
370
    30
100
AcDbLine
 10
5.6701921868
 20
5.8551447462
 30
0.0
 11
5.723192187
 21
5.8551447462
 31
0.0
  0
LINE
  5
3D9
330
1F
100
AcDbEntity
  8
0
  6
Continuous
 62
     7
370
    30
100
AcDbLine
 10
5.723192187
 20
5.8711447214
 30
0.0
 11
5.723192187
 21
5.8551447462
 31
0.0
  0
LINE
  5
3DA
330
1F
100
AcDbEntity
  8
0
  6
Continuous
 62
     7
370
    30
100
AcDbLine
 10
5.723192187
 20
5.8711447214
 30
0.0
 11
7.1611921368
 21
5.8711447214
 31
0.0
  0
LINE
  5
3DB
330
1F
100
AcDbEntity
  8
0
  6
Continuous
 62
     7
370
    30
100
AcDbLine
 10
7.1611921368
 20
5.8551447462
 30
0.0
 11
7.1611921368
 21
5.8711447214
 31
0.0
  0
LINE
  5
3DC
330
1F
100
AcDbEntity
  8
0
  6
Continuous
 62
     7
370
    30
100
AcDbLine
 10
7.1611921368
 20
5.8551447462
 30
0.0
 11
7.2141921645
 21
5.8551447462
 31
0.0
  0
LINE
  5
3DD
330
1F
100
AcDbEntity
  8
0
  6
Continuous
 62
     7
370
    30
100
AcDbLine
 10
7.1611921368
 20
5.8711447214
 30
0.0
 11
7.1611921368
 21
5.9491448203
 31
0.0
  0
LINE
  5
3DE
330
1F
100
AcDbEntity
  8
0
  6
Continuous
 62
     7
370
    30
100
AcDbLine
 10
5.723192187
 20
5.9491448203
 30
0.0
 11
5.723192187
 21
5.8711447214
 31
0.0
  0
LINE
  5
3DF
330
1F
100
AcDbEntity
  8
0
  6
Continuous
 62
     7
370
    30
100
AcDbLine
 10
5.723192187
 20
5.9491448203
 30
0.0
 11
7.1611921368
 21
5.9491448203
 31
0.0
  0
LINE
  5
3E0
330
1F
100
AcDbEntity
  8
0
  6
Continuous
 62
     7
370
    30
100
AcDbLine
 10
6.692192168
 20
5.3211447683
 30
0.0
 11
6.692192168
 21
5.3551447889
 31
0.0
  0
LINE
  5
3E1
330
1F
100
AcDbEntity
  8
0
  6
Continuous
 62
     7
370
    30
100
AcDbLine
 10
6.1921922107
 20
5.3551447889
 30
0.0
 11
6.1921922107
 21
5.3211447683
 31
0.0
  0
LINE
  5
3E2
330
1F
100
AcDbEntity
  8
0
  6
Continuous
 62
     7
370
    30
100
AcDbLine
 10
6.692192168
 20
5.3211447683
 30
0.0
 11
6.692192168
 21
5.297307457
 31
0.0
  0
LINE
  5
3E3
330
1F
100
AcDbEntity
  8
0
  6
Continuous
 62
     7
370
    30
100
AcDbLine
 10
6.692192168
 20
5.2841926752
 30
0.0
 11
6.692192168
 21
5.2431447427
 31
0.0
  0
LINE
  5
3E4
330
1F
100
AcDbEntity
  8
0
  6
Continuous
 62
     7
370
    30
100
AcDbLine
 10
6.692192168
 20
5.2431447427
 30
0.0
 11
6.6301921909
 21
5.2431447427
 31
0.0
  0
LINE
  5
3E5
330
1F
100
AcDbEntity
  8
0
  6
Continuous
 62
     7
370
    30
100
AcDbLine
 10
6.5157619795
 20
5.2431447427
 30
0.0
 11
6.3513114592
 21
5.2431447427
 31
0.0
  0
LINE
  5
3E6
330
1F
100
AcDbEntity
  8
0
  6
Continuous
 62
     7
370
    30
100
AcDbLine
 10
6.2541921878
 20
5.2431447427
 30
0.0
 11
6.1921922107
 21
5.2431447427
 31
0.0
  0
LINE
  5
3E7
330
1F
100
AcDbEntity
  8
0
  6
Continuous
 62
     7
370
    30
100
AcDbLine
 10
6.1921922107
 20
5.2431447427
 30
0.0
 11
6.1921922107
 21
5.2841926752
 31
0.0
  0
LINE
  5
3E8
330
1F
100
AcDbEntity
  8
0
  6
Continuous
 62
     7
370
    30
100
AcDbLine
 10
6.1921922107
 20
5.297307457
 30
0.0
 11
6.1921922107
 21
5.3211447683
 31
0.0
  0
LINE
  5
3E9
330
1F
100
AcDbEntity
  8
0
  6
Continuous
 62
     7
370
    30
100
AcDbLine
 10
5.4791921899
 20
5.8551447462
 30
0.0
 11
5.4791921899
 21
5.2884870256
 31
0.0
  0
LINE
  5
3EA
330
1F
100
AcDbEntity
  8
0
  6
Continuous
 62
     7
370
    30
100
AcDbLine
 10
5.4791921899
 20
5.2404458139
 30
0.0
 11
5.4791921899
 21
5.2301447996
 31
0.0
  0
LINE
  5
3EB
330
1F
100
AcDbEntity
  8
0
  6
Continuous
 62
     7
370
    30
100
AcDbLine
 10
5.4791921899
 20
5.8551447462
 30
0.0
 11
5.5421921906
 21
5.8551447462
 31
0.0
  0
LINE
  5
3EC
330
1F
100
AcDbEntity
  8
0
  6
Continuous
 62
     7
370
    30
100
AcDbLine
 10
3.9051922037
 20
5.8551447462
 30
0.0
 11
3.9051922037
 21
5.2884870256
 31
0.0
  0
LINE
  5
3ED
330
1F
100
AcDbEntity
  8
0
  6
Continuous
 62
     7
370
    30
100
AcDbLine
 10
3.9051922037
 20
5.2404458139
 30
0.0
 11
3.9051922037
 21
5.2301447996
 31
0.0
  0
LINE
  5
3EE
330
1F
100
AcDbEntity
  8
0
  6
Continuous
 62
     7
370
    30
100
AcDbLine
 10
3.9051922037
 20
5.8551447462
 30
0.0
 11
3.8421921181
 21
5.8551447462
 31
0.0
  0
LINE
  5
3EF
330
1F
100
AcDbEntity
  8
0
  6
Continuous
 62
     7
370
    30
100
AcDbLine
 10
5.4641921948
 20
5.8551447462
 30
0.0
 11
5.4641921948
 21
5.3551447889
 31
0.0
  0
LINE
  5
3F0
330
1F
100
AcDbEntity
  8
0
  6
Continuous
 62
     7
370
    30
100
AcDbLine
 10
5.4641921948
 20
5.3551447889
 30
0.0
 11
5.4791921899
 21
5.3551447889
 31
0.0
  0
LINE
  5
3F1
330
1F
100
AcDbEntity
  8
0
  6
Continuous
 62
     7
370
    30
100
AcDbLine
 10
5.4791921899
 20
5.8551447462
 30
0.0
 11
5.4641921948
 21
5.8551447462
 31
0.0
  0
LINE
  5
3F2
330
1F
100
AcDbEntity
  8
0
  6
Continuous
 62
     7
370
    30
100
AcDbLine
 10
3.9201922171
 20
5.8551447462
 30
0.0
 11
3.9051922037
 21
5.8551447462
 31
0.0
  0
LINE
  5
3F3
330
1F
100
AcDbEntity
  8
0
  6
Continuous
 62
     7
370
    30
100
AcDbLine
 10
3.9201922171
 20
5.3551447889
 30
0.0
 11
3.9201922171
 21
5.8551447462
 31
0.0
  0
LINE
  5
3F4
330
1F
100
AcDbEntity
  8
0
  6
Continuous
 62
     7
370
    30
100
AcDbLine
 10
3.9051922037
 20
5.3551447889
 30
0.0
 11
3.9201922171
 21
5.3551447889
 31
0.0
  0
LINE
  5
3F5
330
1F
100
AcDbEntity
  8
0
  6
Continuous
 62
     7
370
    30
100
AcDbLine
 10
5.4641921948
 20
5.3551447889
 30
0.0
 11
4.8064322525
 21
5.3551447889
 31
0.0
  0
LINE
  5
3F6
330
1F
100
AcDbEntity
  8
0
  6
Continuous
 62
     7
370
    30
100
AcDbLine
 10
4.7894681018
 20
5.3551447889
 30
0.0
 11
4.5949162826
 21
5.3551447889
 31
0.0
  0
LINE
  5
3F7
330
1F
100
AcDbEntity
  8
0
  6
Continuous
 62
     7
370
    30
100
AcDbLine
 10
4.5779521319
 20
5.3551447889
 30
0.0
 11
3.9201922171
 21
5.3551447889
 31
0.0
  0
LINE
  5
3F8
330
1F
100
AcDbEntity
  8
0
  6
Continuous
 62
     7
370
    30
100
AcDbLine
 10
3.9201922171
 20
5.8551447462
 30
0.0
 11
3.9731922448
 21
5.8551447462
 31
0.0
  0
LINE
  5
3F9
330
1F
100
AcDbEntity
  8
0
  6
Continuous
 62
     7
370
    30
100
AcDbLine
 10
3.9731922448
 20
5.8711447214
 30
0.0
 11
3.9731922448
 21
5.8551447462
 31
0.0
  0
LINE
  5
3FA
330
1F
100
AcDbEntity
  8
0
  6
Continuous
 62
     7
370
    30
100
AcDbLine
 10
3.9731922448
 20
5.8711447214
 30
0.0
 11
5.4111921946
 21
5.8711447214
 31
0.0
  0
LINE
  5
3FB
330
1F
100
AcDbEntity
  8
0
  6
Continuous
 62
     7
370
    30
100
AcDbLine
 10
5.4111921946
 20
5.8551447462
 30
0.0
 11
5.4641921948
 21
5.8551447462
 31
0.0
  0
LINE
  5
3FC
330
1F
100
AcDbEntity
  8
0
  6
Continuous
 62
     7
370
    30
100
AcDbLine
 10
5.4111921946
 20
5.8551447462
 30
0.0
 11
5.4111921946
 21
5.8711447214
 31
0.0
  0
LINE
  5
3FD
330
1F
100
AcDbEntity
  8
0
  6
Continuous
 62
     7
370
    30
100
AcDbLine
 10
3.9731922448
 20
5.9491448203
 30
0.0
 11
3.9731922448
 21
5.8711447214
 31
0.0
  0
LINE
  5
3FE
330
1F
100
AcDbEntity
  8
0
  6
Continuous
 62
     7
370
    30
100
AcDbLine
 10
3.9731922448
 20
5.9491448203
 30
0.0
 11
5.4111921946
 21
5.9491448203
 31
0.0
  0
LINE
  5
3FF
330
1F
100
AcDbEntity
  8
0
  6
Continuous
 62
     7
370
    30
100
AcDbLine
 10
5.4111921946
 20
5.8711447214
 30
0.0
 11
5.4111921946
 21
5.9491448203
 31
0.0
  0
LINE
  5
400
330
1F
100
AcDbEntity
  8
0
  6
Continuous
 62
     7
370
    30
100
AcDbLine
 10
4.9421921708
 20
5.3211447683
 30
0.0
 11
4.9421921708
 21
5.3551447889
 31
0.0
  0
LINE
  5
401
330
1F
100
AcDbEntity
  8
0
  6
Continuous
 62
     7
370
    30
100
AcDbLine
 10
4.4421922136
 20
5.3551447889
 30
0.0
 11
4.4421922136
 21
5.3211447683
 31
0.0
  0
LINE
  5
402
330
1F
100
AcDbEntity
  8
0
  6
Continuous
 62
     7
370
    30
100
AcDbLine
 10
4.9421921708
 20
5.2431447427
 30
0.0
 11
4.8801921937
 21
5.2431447427
 31
0.0
  0
LINE
  5
403
330
1F
100
AcDbEntity
  8
0
  6
Continuous
 62
     7
370
    30
100
AcDbLine
 10
4.7657619823
 20
5.2431447427
 30
0.0
 11
4.6013114621
 21
5.2431447427
 31
0.0
  0
LINE
  5
404
330
1F
100
AcDbEntity
  8
0
  6
Continuous
 62
     7
370
    30
100
AcDbLine
 10
4.5041921907
 20
5.2431447427
 30
0.0
 11
4.4421922136
 21
5.2431447427
 31
0.0
  0
LINE
  5
405
330
1F
100
AcDbEntity
  8
0
  6
Continuous
 62
     7
370
    30
100
AcDbLine
 10
4.4421922136
 20
5.2431447427
 30
0.0
 11
4.4421922136
 21
5.2841926752
 31
0.0
  0
LINE
  5
406
330
1F
100
AcDbEntity
  8
0
  6
Continuous
 62
     7
370
    30
100
AcDbLine
 10
4.4421922136
 20
5.297307457
 30
0.0
 11
4.4421922136
 21
5.3211447683
 31
0.0
  0
LINE
  5
407
330
1F
100
AcDbEntity
  8
0
  6
Continuous
 62
     7
370
    30
100
AcDbLine
 10
4.9421921708
 20
5.3211447683
 30
0.0
 11
4.9421921708
 21
5.297307457
 31
0.0
  0
LINE
  5
408
330
1F
100
AcDbEntity
  8
0
  6
Continuous
 62
     7
370
    30
100
AcDbLine
 10
4.9421921708
 20
5.2841926752
 30
0.0
 11
4.9421921708
 21
5.2431447427
 31
0.0
  0
LINE
  5
409
330
1F
100
AcDbEntity
  8
0
  6
Continuous
 62
     7
370
    30
100
AcDbLine
 10
3.7291921835
 20
5.8551447462
 30
0.0
 11
3.7921921224
 21
5.8551447462
 31
0.0
  0
LINE
  5
40A
330
1F
100
AcDbEntity
  8
0
  6
Continuous
 62
     7
370
    30
100
AcDbLine
 10
3.7291921835
 20
5.8551447462
 30
0.0
 11
3.7291921835
 21
5.2884870256
 31
0.0
  0
LINE
  5
40B
330
1F
100
AcDbEntity
  8
0
  6
Continuous
 62
     7
370
    30
100
AcDbLine
 10
3.7291921835
 20
5.2404458139
 30
0.0
 11
3.7291921835
 21
5.2301447996
 31
0.0
  0
LINE
  5
40C
330
1F
100
AcDbEntity
  8
0
  6
Continuous
 62
     7
370
    30
100
AcDbLine
 10
2.1551920598
 20
5.8551447462
 30
0.0
 11
2.092192121
 21
5.8551447462
 31
0.0
  0
LINE
  5
40D
330
1F
100
AcDbEntity
  8
0
  6
Continuous
 62
     7
370
    30
100
AcDbLine
 10
2.092192121
 20
5.845144835
 30
0.0
 11
2.092192121
 21
5.8551447462
 31
0.0
  0
LINE
  5
40E
330
1F
100
AcDbEntity
  8
0
  6
Continuous
 62
     7
370
    30
100
AcDbLine
 10
2.1551920598
 20
5.8551447462
 30
0.0
 11
2.1551920598
 21
5.2884870256
 31
0.0
  0
LINE
  5
40F
330
1F
100
AcDbEntity
  8
0
  6
Continuous
 62
     7
370
    30
100
AcDbLine
 10
3.7141921701
 20
5.3551447889
 30
0.0
 11
3.7291921835
 21
5.3551447889
 31
0.0
  0
LINE
  5
410
330
1F
100
AcDbEntity
  8
0
  6
Continuous
 62
     7
370
    30
100
AcDbLine
 10
3.7141921701
 20
5.8551447462
 30
0.0
 11
3.7141921701
 21
5.3551447889
 31
0.0
  0
LINE
  5
411
330
1F
100
AcDbEntity
  8
0
  6
Continuous
 62
     7
370
    30
100
AcDbLine
 10
3.7291921835
 20
5.8551447462
 30
0.0
 11
3.7141921701
 21
5.8551447462
 31
0.0
  0
LINE
  5
412
330
1F
100
AcDbEntity
  8
0
  6
Continuous
 62
     7
370
    30
100
AcDbLine
 10
2.1701920732
 20
5.3551447889
 30
0.0
 11
2.1701920732
 21
5.8551447462
 31
0.0
  0
LINE
  5
413
330
1F
100
AcDbEntity
  8
0
  6
Continuous
 62
     7
370
    30
100
AcDbLine
 10
2.1701920732
 20
5.8551447462
 30
0.0
 11
2.1551920598
 21
5.8551447462
 31
0.0
  0
LINE
  5
414
330
1F
100
AcDbEntity
  8
0
  6
Continuous
 62
     7
370
    30
100
AcDbLine
 10
2.1551920598
 20
5.3551447889
 30
0.0
 11
2.1701920732
 21
5.3551447889
 31
0.0
  0
LINE
  5
415
330
1F
100
AcDbEntity
  8
0
  6
Continuous
 62
     7
370
    30
100
AcDbLine
 10
3.6611921424
 20
5.8711447214
 30
0.0
 11
3.6611921424
 21
5.9491448203
 31
0.0
  0
LINE
  5
416
330
1F
100
AcDbEntity
  8
0
  6
Continuous
 62
     7
370
    30
100
AcDbLine
 10
2.223192101
 20
5.8711447214
 30
0.0
 11
3.6611921424
 21
5.8711447214
 31
0.0
  0
LINE
  5
417
330
1F
100
AcDbEntity
  8
0
  6
Continuous
 62
     7
370
    30
100
AcDbLine
 10
2.223192101
 20
5.9491448203
 30
0.0
 11
2.223192101
 21
5.8711447214
 31
0.0
  0
LINE
  5
418
330
1F
100
AcDbEntity
  8
0
  6
Continuous
 62
     7
370
    30
100
AcDbLine
 10
2.223192101
 20
5.9491448203
 30
0.0
 11
3.6611921424
 21
5.9491448203
 31
0.0
  0
LINE
  5
419
330
1F
100
AcDbEntity
  8
0
  6
Continuous
 62
     7
370
    30
100
AcDbLine
 10
3.7141921701
 20
5.3551447889
 30
0.0
 11
3.056432182
 21
5.3551447889
 31
0.0
  0
LINE
  5
41A
330
1F
100
AcDbEntity
  8
0
  6
Continuous
 62
     7
370
    30
100
AcDbLine
 10
3.0394680313
 20
5.3551447889
 30
0.0
 11
2.8449163588
 21
5.3551447889
 31
0.0
  0
LINE
  5
41B
330
1F
100
AcDbEntity
  8
0
  6
Continuous
 62
     7
370
    30
100
AcDbLine
 10
2.8279522081
 20
5.3551447889
 30
0.0
 11
2.1701920732
 21
5.3551447889
 31
0.0
  0
LINE
  5
41C
330
1F
100
AcDbEntity
  8
0
  6
Continuous
 62
     7
370
    30
100
AcDbLine
 10
2.1701920732
 20
5.8551447462
 30
0.0
 11
2.223192101
 21
5.8551447462
 31
0.0
  0
LINE
  5
41D
330
1F
100
AcDbEntity
  8
0
  6
Continuous
 62
     7
370
    30
100
AcDbLine
 10
2.223192101
 20
5.8711447214
 30
0.0
 11
2.223192101
 21
5.8551447462
 31
0.0
  0
LINE
  5
41E
330
1F
100
AcDbEntity
  8
0
  6
Continuous
 62
     7
370
    30
100
AcDbLine
 10
3.6611921424
 20
5.8551447462
 30
0.0
 11
3.6611921424
 21
5.8711447214
 31
0.0
  0
LINE
  5
41F
330
1F
100
AcDbEntity
  8
0
  6
Continuous
 62
     7
370
    30
100
AcDbLine
 10
3.6611921424
 20
5.8551447462
 30
0.0
 11
3.7141921701
 21
5.8551447462
 31
0.0
  0
LINE
  5
420
330
1F
100
AcDbEntity
  8
0
  6
Continuous
 62
     7
370
    30
100
AcDbLine
 10
3.1921921737
 20
5.3211447683
 30
0.0
 11
3.1921921737
 21
5.3551447889
 31
0.0
  0
LINE
  5
421
330
1F
100
AcDbEntity
  8
0
  6
Continuous
 62
     7
370
    30
100
AcDbLine
 10
2.6921920697
 20
5.3551447889
 30
0.0
 11
2.6921920697
 21
5.3211447683
 31
0.0
  0
LINE
  5
422
330
1F
100
AcDbEntity
  8
0
  6
Continuous
 62
     7
370
    30
100
AcDbLine
 10
3.1921921737
 20
5.3211447683
 30
0.0
 11
3.1921921737
 21
5.297307457
 31
0.0
  0
LINE
  5
423
330
1F
100
AcDbEntity
  8
0
  6
Continuous
 62
     7
370
    30
100
AcDbLine
 10
3.1921921737
 20
5.2841926752
 30
0.0
 11
3.1921921737
 21
5.2431447427
 31
0.0
  0
LINE
  5
424
330
1F
100
AcDbEntity
  8
0
  6
Continuous
 62
     7
370
    30
100
AcDbLine
 10
3.1921921737
 20
5.2431447427
 30
0.0
 11
3.1301921966
 21
5.2431447427
 31
0.0
  0
LINE
  5
425
330
1F
100
AcDbEntity
  8
0
  6
Continuous
 62
     7
370
    30
100
AcDbLine
 10
3.0157619851
 20
5.2431447427
 30
0.0
 11
2.8513115382
 21
5.2431447427
 31
0.0
  0
LINE
  5
426
330
1F
100
AcDbEntity
  8
0
  6
Continuous
 62
     7
370
    30
100
AcDbLine
 10
2.7541920468
 20
5.2431447427
 30
0.0
 11
2.6921920697
 21
5.2431447427
 31
0.0
  0
LINE
  5
427
330
1F
100
AcDbEntity
  8
0
  6
Continuous
 62
     7
370
    30
100
AcDbLine
 10
2.6921920697
 20
5.2431447427
 30
0.0
 11
2.6921920697
 21
5.2841926752
 31
0.0
  0
LINE
  5
428
330
1F
100
AcDbEntity
  8
0
  6
Continuous
 62
     7
370
    30
100
AcDbLine
 10
2.6921920697
 20
5.297307457
 30
0.0
 11
2.6921920697
 21
5.3211447683
 31
0.0
  0
LINE
  5
429
330
1F
100
AcDbEntity
  8
0
  6
Continuous
 62
     8
370
    30
100
AcDbLine
 10
7.9421922079
 20
5.3211447683
 30
0.0
 11
8.0085330282
 21
5.3211447683
 31
0.0
  0
LINE
  5
42A
330
1F
100
AcDbEntity
  8
0
  6
Continuous
 62
     8
370
    30
100
AcDbLine
 10
8.0441356569
 20
5.3211447683
 30
0.0
 11
8.3402487162
 21
5.3211447683
 31
0.0
  0
LINE
  5
42B
330
1F
100
AcDbEntity
  8
0
  6
Continuous
 62
     8
370
    30
100
AcDbLine
 10
8.3758513449
 20
5.3211447683
 30
0.0
 11
8.4421923119
 21
5.3211447683
 31
0.0
  0
LINE
  5
42C
330
1F
100
AcDbEntity
  8
0
  6
Continuous
 62
     8
370
    30
100
AcDbLine
 10
6.1921922107
 20
5.3211447683
 30
0.0
 11
6.2585329577
 21
5.3211447683
 31
0.0
  0
LINE
  5
42D
330
1F
100
AcDbEntity
  8
0
  6
Continuous
 62
     8
370
    30
100
AcDbLine
 10
6.2941358064
 20
5.3211447683
 30
0.0
 11
6.5902485724
 21
5.3211447683
 31
0.0
  0
LINE
  5
42E
330
1F
100
AcDbEntity
  8
0
  6
Continuous
 62
     8
370
    30
100
AcDbLine
 10
6.6258514211
 20
5.3211447683
 30
0.0
 11
6.692192168
 21
5.3211447683
 31
0.0
  0
LINE
  5
42F
330
1F
100
AcDbEntity
  8
0
  6
Continuous
 62
     8
370
    30
100
AcDbLine
 10
4.4421922136
 20
5.3211447683
 30
0.0
 11
4.5085329605
 21
5.3211447683
 31
0.0
  0
LINE
  5
430
330
1F
100
AcDbEntity
  8
0
  6
Continuous
 62
     8
370
    30
100
AcDbLine
 10
4.5441358092
 20
5.3211447683
 30
0.0
 11
4.8402485752
 21
5.3211447683
 31
0.0
  0
LINE
  5
431
330
1F
100
AcDbEntity
  8
0
  6
Continuous
 62
     8
370
    30
100
AcDbLine
 10
4.8758514239
 20
5.3211447683
 30
0.0
 11
4.9421921708
 21
5.3211447683
 31
0.0
  0
LINE
  5
432
330
1F
100
AcDbEntity
  8
0
  6
Continuous
 62
     8
370
    30
100
AcDbLine
 10
2.6921920697
 20
5.3211447683
 30
0.0
 11
2.7585330367
 21
5.3211447683
 31
0.0
  0
LINE
  5
433
330
1F
100
AcDbEntity
  8
0
  6
Continuous
 62
     8
370
    30
100
AcDbLine
 10
2.7941356654
 20
5.3211447683
 30
0.0
 11
3.0902487246
 21
5.3211447683
 31
0.0
  0
LINE
  5
434
330
1F
100
AcDbEntity
  8
0
  6
Continuous
 62
     8
370
    30
100
AcDbLine
 10
3.1258513534
 20
5.3211447683
 30
0.0
 11
3.1921921737
 21
5.3211447683
 31
0.0
  0
MTEXT
  5
436
330
1F
100
AcDbEntity
  8
FORMAT
100
AcDbMText
 10
4.4555576037
 20
3.3809921484
 30
0.0
 40
0.125
 41
0.0
 71
     1
 72
     1
  1
ML-39, 4 SLOT, TYPE 22
  7
SLDTEXTSTYLE0
 73
     1
 44
1.0
  0
ENDSEC
  0
SECTION
  2
OBJECTS
  0
DICTIONARY
  5
C
330
0
100
AcDbDictionary
281
     1
  3
ACAD_GROUP
350
D
  3
ACAD_LAYOUT
350
1A
  3
ACAD_MLINESTYLE
350
17
  3
ACAD_PLOTSETTINGS
350
19
  3
ACAD_PLOTSTYLENAME
350
E
  3
ACAD_SCALELIST
350
47
  0
DICTIONARY
  5
D
102
{ACAD_REACTORS
330
C
102
}
330
C
100
AcDbDictionary
281
     1
  0
DICTIONARY
  5
1A
102
{ACAD_REACTORS
330
C
102
}
330
C
100
AcDbDictionary
281
     1
  3
Layout1
350
1E
  3
Layout2
350
26
  3
Model
350
22
  0
DICTIONARY
  5
17
102
{ACAD_REACTORS
330
C
102
}
330
C
100
AcDbDictionary
281
     1
  3
Standard
350
18
  0
DICTIONARY
  5
19
102
{ACAD_REACTORS
330
C
102
}
330
C
100
AcDbDictionary
281
     1
  0
ACDBDICTIONARYWDFLT
  5
E
102
{ACAD_REACTORS
330
C
102
}
330
C
100
AcDbDictionary
281
     1
  3
Normal
350
F
100
AcDbDictionaryWithDefault
340
F
  0
DICTIONARY
  5
47
102
{ACAD_REACTORS
330
C
102
}
330
C
100
AcDbDictionary
281
     1
  3
A0
350
48
  3
A1
350
49
  3
A2
350
4A
  3
A3
350
4B
  3
A4
350
4C
  3
A5
350
4D
  3
A6
350
4E
  3
A7
350
4F
  3
A8
350
50
  3
A9
350
51
  3
B0
350
52
  3
B1
350
53
  3
B2
350
54
  3
B3
350
55
  3
B4
350
56
  3
B5
350
57
  3
B6
350
58
  3
B7
350
59
  3
B8
350
5A
  3
B9
350
5B
  3
C0
350
5C
  3
C1
350
5D
  3
C2
350
5E
  3
C3
350
5F
  3
C4
350
60
  3
C5
350
61
  3
C6
350
62
  3
C7
350
63
  3
C8
350
64
  3
C9
350
65
  3
D0
350
66
  3
D1
350
67
  3
D2
350
68
  0
LAYOUT
  5
1E
102
{ACAD_REACTORS
330
1A
102
}
330
1A
100
AcDbPlotSettings
  1

  2
none_device
  4

  6

 40
0.0
 41
0.0
 42
0.0
 43
0.0
 44
0.0
 45
0.0
 46
0.0
 47
0.0
 48
0.0
 49
0.0
140
0.0
141
0.0
142
1.0
143
1.0
 70
   688
 72
     0
 73
     0
 74
     5
  7

 75
    16
147
1.0
148
0.0
149
0.0
100
AcDbLayout
  1
Layout1
 70
     1
 71
     1
 10
0.0
 20
0.0
 11
12.0
 21
9.0
 12
0.0
 22
0.0
 32
0.0
 14
1.0000000000E+20
 24
1.0000000000E+20
 34
1.0000000000E+20
 15
-1.0000000000E+20
 25
-1.0000000000E+20
 35
-1.0000000000E+20
146
0.0
 13
0.0
 23
0.0
 33
0.0
 16
1.0
 26
0.0
 36
0.0
 17
0.0
 27
1.0
 37
0.0
 76
     0
330
1B
  0
LAYOUT
  5
26
102
{ACAD_REACTORS
330
1A
102
}
330
1A
100
AcDbPlotSettings
  1

  2
none_device
  4

  6

 40
0.0
 41
0.0
 42
0.0
 43
0.0
 44
0.0
 45
0.0
 46
0.0
 47
0.0
 48
0.0
 49
0.0
140
0.0
141
0.0
142
1.0
143
1.0
 70
   688
 72
     0
 73
     0
 74
     5
  7

 75
    16
147
1.0
148
0.0
149
0.0
100
AcDbLayout
  1
Layout2
 70
     1
 71
     2
 10
0.0
 20
0.0
 11
0.0
 21
0.0
 12
0.0
 22
0.0
 32
0.0
 14
0.0
 24
0.0
 34
0.0
 15
0.0
 25
0.0
 35
0.0
146
0.0
 13
0.0
 23
0.0
 33
0.0
 16
1.0
 26
0.0
 36
0.0
 17
0.0
 27
1.0
 37
0.0
 76
     0
330
23
  0
LAYOUT
  5
22
102
{ACAD_REACTORS
330
1A
102
}
330
1A
100
AcDbPlotSettings
  1

  2
none_device
  4
Letter_(8.50_x_11.00_Inches)
  6

 40
6.35
 41
6.35
 42
6.35000508
 43
6.35000508
 44
215.9
 45
279.4
 46
0.0
 47
0.0
 48
0.0
 49
0.0
140
0.0
141
0.0
142
1.0
143
1.0
 70
  1712
 72
     0
 73
     0
 74
     0
  7

 75
     0
147
1.0
148
0.0
149
0.0
100
AcDbLayout
  1
Model
 70
     1
 71
     0
 10
0.0
 20
0.0
 11
11.0
 21
8.5
 12
0.0
 22
0.0
 32
0.0
 14
0.0
 24
0.0
 34
0.0
 15
11.0
 25
8.5
 35
0.0
146
0.0
 13
0.0
 23
0.0
 33
0.0
 16
1.0
 26
0.0
 36
0.0
 17
0.0
 27
1.0
 37
0.0
 76
     0
330
1F
331
29
  0
MLINESTYLE
  5
18
102
{ACAD_REACTORS
330
17
102
}
330
17
100
AcDbMlineStyle
  2
Standard
 70
     0
  3

 62
   256
 51
90.0
 52
90.0
 71
     2
 49
0.5
 62
   256
  6
BYLAYER
 49
-0.5
 62
   256
  6
BYLAYER
  0
ACDBPLACEHOLDER
  5
F
102
{ACAD_REACTORS
330
E
102
}
330
E
  0
SCALE
  5
48
102
{ACAD_REACTORS
330
47
102
}
330
47
100
AcDbScale
 70
     0
300
1:1
140
1.0
141
1.0
290
     1
  0
SCALE
  5
49
102
{ACAD_REACTORS
330
47
102
}
330
47
100
AcDbScale
 70
     0
300
1:2
140
1.0
141
2.0
290
     0
  0
SCALE
  5
4A
102
{ACAD_REACTORS
330
47
102
}
330
47
100
AcDbScale
 70
     0
300
1:4
140
1.0
141
4.0
290
     0
  0
SCALE
  5
4B
102
{ACAD_REACTORS
330
47
102
}
330
47
100
AcDbScale
 70
     0
300
1:5
140
1.0
141
5.0
290
     0
  0
SCALE
  5
4C
102
{ACAD_REACTORS
330
47
102
}
330
47
100
AcDbScale
 70
     0
300
1:8
140
1.0
141
8.0
290
     0
  0
SCALE
  5
4D
102
{ACAD_REACTORS
330
47
102
}
330
47
100
AcDbScale
 70
     0
300
1:10
140
1.0
141
10.0
290
     0
  0
SCALE
  5
4E
102
{ACAD_REACTORS
330
47
102
}
330
47
100
AcDbScale
 70
     0
300
1:16
140
1.0
141
16.0
290
     0
  0
SCALE
  5
4F
102
{ACAD_REACTORS
330
47
102
}
330
47
100
AcDbScale
 70
     0
300
1:20
140
1.0
141
20.0
290
     0
  0
SCALE
  5
50
102
{ACAD_REACTORS
330
47
102
}
330
47
100
AcDbScale
 70
     0
300
1:30
140
1.0
141
30.0
290
     0
  0
SCALE
  5
51
102
{ACAD_REACTORS
330
47
102
}
330
47
100
AcDbScale
 70
     0
300
1:40
140
1.0
141
40.0
290
     0
  0
SCALE
  5
52
102
{ACAD_REACTORS
330
47
102
}
330
47
100
AcDbScale
 70
     0
300
1:50
140
1.0
141
50.0
290
     0
  0
SCALE
  5
53
102
{ACAD_REACTORS
330
47
102
}
330
47
100
AcDbScale
 70
     0
300
1:100
140
1.0
141
100.0
290
     0
  0
SCALE
  5
54
102
{ACAD_REACTORS
330
47
102
}
330
47
100
AcDbScale
 70
     0
300
2:1
140
2.0
141
1.0
290
     0
  0
SCALE
  5
55
102
{ACAD_REACTORS
330
47
102
}
330
47
100
AcDbScale
 70
     0
300
4:1
140
4.0
141
1.0
290
     0
  0
SCALE
  5
56
102
{ACAD_REACTORS
330
47
102
}
330
47
100
AcDbScale
 70
     0
300
8:1
140
8.0
141
1.0
290
     0
  0
SCALE
  5
57
102
{ACAD_REACTORS
330
47
102
}
330
47
100
AcDbScale
 70
     0
300
10:1
140
10.0
141
1.0
290
     0
  0
SCALE
  5
58
102
{ACAD_REACTORS
330
47
102
}
330
47
100
AcDbScale
 70
     0
300
100:1
140
100.0
141
1.0
290
     0
  0
SCALE
  5
59
102
{ACAD_REACTORS
330
47
102
}
330
47
100
AcDbScale
 70
     0
300
1/128" = 1'-0"
140
0.0078125
141
12.0
290
     0
  0
SCALE
  5
5A
102
{ACAD_REACTORS
330
47
102
}
330
47
100
AcDbScale
 70
     0
300
1/64" = 1'-0"
140
0.015625
141
12.0
290
     0
  0
SCALE
  5
5B
102
{ACAD_REACTORS
330
47
102
}
330
47
100
AcDbScale
 70
     0
300
1/32" = 1'-0"
140
0.03125
141
12.0
290
     0
  0
SCALE
  5
5C
102
{ACAD_REACTORS
330
47
102
}
330
47
100
AcDbScale
 70
     0
300
1/16" = 1'-0"
140
0.0625
141
12.0
290
     0
  0
SCALE
  5
5D
102
{ACAD_REACTORS
330
47
102
}
330
47
100
AcDbScale
 70
     0
300
3/32" = 1'-0"
140
0.09375
141
12.0
290
     0
  0
SCALE
  5
5E
102
{ACAD_REACTORS
330
47
102
}
330
47
100
AcDbScale
 70
     0
300
1/8" = 1'-0"
140
0.125
141
12.0
290
     0
  0
SCALE
  5
5F
102
{ACAD_REACTORS
330
47
102
}
330
47
100
AcDbScale
 70
     0
300
3/16" = 1'-0"
140
0.1875
141
12.0
290
     0
  0
SCALE
  5
60
102
{ACAD_REACTORS
330
47
102
}
330
47
100
AcDbScale
 70
     0
300
1/4" = 1'-0"
140
0.25
141
12.0
290
     0
  0
SCALE
  5
61
102
{ACAD_REACTORS
330
47
102
}
330
47
100
AcDbScale
 70
     0
300
3/8" = 1'-0"
140
0.375
141
12.0
290
     0
  0
SCALE
  5
62
102
{ACAD_REACTORS
330
47
102
}
330
47
100
AcDbScale
 70
     0
300
1/2" = 1'-0"
140
0.5
141
12.0
290
     0
  0
SCALE
  5
63
102
{ACAD_REACTORS
330
47
102
}
330
47
100
AcDbScale
 70
     0
300
3/4" = 1'-0"
140
0.75
141
12.0
290
     0
  0
SCALE
  5
64
102
{ACAD_REACTORS
330
47
102
}
330
47
100
AcDbScale
 70
     0
300
1" = 1'-0"
140
1.0
141
12.0
290
     0
  0
SCALE
  5
65
102
{ACAD_REACTORS
330
47
102
}
330
47
100
AcDbScale
 70
     0
300
1-1/2" = 1'-0"
140
1.5
141
12.0
290
     0
  0
SCALE
  5
66
102
{ACAD_REACTORS
330
47
102
}
330
47
100
AcDbScale
 70
     0
300
3" = 1'-0"
140
3.0
141
12.0
290
     0
  0
SCALE
  5
67
102
{ACAD_REACTORS
330
47
102
}
330
47
100
AcDbScale
 70
     0
300
6" = 1'-0"
140
6.0
141
12.0
290
     0
  0
SCALE
  5
68
102
{ACAD_REACTORS
330
47
102
}
330
47
100
AcDbScale
 70
     0
300
1'-0" = 1'-0"
140
12.0
141
12.0
290
     0
  0
ENDSEC
  0
EOF
